Song name
# A B C D E F G H I J K L M N O P Q R S T U V W X Y Z

Rasmus - Everyday tab

Artist : The Rasmus
Song : Everyday
Album : Hell of a tester 
Tab by: Beberasmus bebe_4048@hotmail.com

Good song!
 
Intro:
E|-----------------------------------|
B|-----------------------------------|
G|---2---2---6---6---7---6---2-1-2---|
D|-----------------------------------|x3
A|-0---0---4---4---5---4---0---------|
E|-----------------------------------|

E|-----------------------|
B|-----------------------|
G|---2---2---6---6--7----|
D|------------------x----|
A|-0---0---4---4----5----|
E|-----------------------|

E|-------------------------------------------------------------|
B|-------------------------------------------------------------|
G|-----------------7-7-7-----------7-7-7-----------6-6-6-6-6-6-|
D|-4-4-4---7-7-7---7-7-7---7-7-7---7-7-7---7-7-7---6-6-6-6-6-6-|
A|-4-4-4---7-7-7---5-5-5---7-7-7---5-5-5---7-7-7---4-4-4-4-4-4-|
E|-2-2-2---5-5-5-----------5-5-5-----------5-5-5---------------|


E|-----------------------------------------------------|
B|-----------------------------------------------------|
G|-----------------7-7-7-----------7-7-7-----------6~--|
D|-4-4-4---7-7-7---7-7-7---7-7-7---7-7-7---7-7-7---6~--|
A|-4-4-4---7-7-7---5-5-5---7-7-7---5-5-5---7-7-7---4~--|
E|-2-2-2---5-5-5-----------5-5-5-----------5-5-5-------|

Verse:x2
E|-----------------------------------|         
B|-----------------------------------|         
G|---2---2---6---6---7---6---2-1-2---|
D|-----------------------------------|x3
A|-0---0---4---4---5---4---0---------|
E|-----------------------------------|

E|-----------------------|
B|-----------------------|
G|---2---2---6---6--7----|
D|------------------x----|
A|-0---0---4---4----5----|
E|-----------------------|

Chorus:
E|-------------------------------------------------------------|
B|-------------------------------------------------------------|
G|-----------------7-7-7-----------7-7-7-----------6-6-6-6-6-6-|
D|-4-4-4---7-7-7---7-7-7---7-7-7---7-7-7---7-7-7---6-6-6-6-6-6-|
A|-4-4-4---7-7-7---5-5-5---7-7-7---5-5-5---7-7-7---4-4-4-4-4-4-|
E|-2-2-2---5-5-5-----------5-5-5-----------5-5-5---------------|


E|-----------------------------------------------------|
B|-----------------------------------------------------|
G|-----------------7-7-7-----------7-7-7-----------6~--|
D|-4-4-4---7-7-7---7-7-7---7-7-7---7-7-7---7-7-7---6~--|
A|-4-4-4---7-7-7---5-5-5---7-7-7---5-5-5---7-7-7---4~--|
E|-2-2-2---5-5-5-----------5-5-5-----------5-5-5-------|


Verse 2:x2
E|-----------------------------------|         
B|-----------------------------------|         
G|---2---2---6---6---7---6---2-1-2---|
D|-----------------------------------|x3
A|-0---0---4---4---5---4---0---------|
E|-----------------------------------|

E|-----------------------|
B|-----------------------|
G|---2---2---6---6--7----|
D|------------------x----|
A|-0---0---4---4----5----|
E|-----------------------|

Chorus:
E|-------------------------------------------------------------|
B|-------------------------------------------------------------|
G|-----------------7-7-7-----------7-7-7-----------6-6-6-6-6-6-|
D|-4-4-4---7-7-7---7-7-7---7-7-7---7-7-7---7-7-7---6-6-6-6-6-6-|
A|-4-4-4---7-7-7---5-5-5---7-7-7---5-5-5---7-7-7---4-4-4-4-4-4-|
E|-2-2-2---5-5-5-----------5-5-5-----------5-5-5---------------|


E|-----------------------------------------------------|
B|-----------------------------------------------------|
G|-----------------7-7-7-----------7-7-7-----------6~--|
D|-4-4-4---7-7-7---7-7-7---7-7-7---7-7-7---7-7-7---6~--|
A|-4-4-4---7-7-7---5-5-5---7-7-7---5-5-5---7-7-7---4~--|
E|-2-2-2---5-5-5-----------5-5-5-----------5-5-5-------|

Bridge:
E|------------------------------------|
B|------------------------------------|
G|-------------7---7-------------6~---|
D|---4---4---7---7---7---7-----6------| x2
A|---4---4---5---5---7---7-----4------|
E|---2---2-------------5---5----------|

Then:
E|-----------------------------------|
B|-----------------------------------|
G|------7-7-7-7----------6-6-6-6-6-6-|
D|-4----7-7-7-7--7-7-7---6-6-6-6-6-6-|
A|-4----5-5-5-5--7-7-7---4-4-4-4-4-4-|
E|-2-------------5-5-5---------------|

E|--------------------------------------------------|
B|--------------------------------------------------|
G|------7-7-7-----------7-7-7-----------6-6-6-6-6-6-|
D|-4----7-7-7---7-7-7---7-7-7---7-7-7---6-6-6-6-6-6-|
A|-4----5-5-5---7-7-7---5-5-5---7-7-7---4-4-4-4-4-4-|
E|-2------------5-5-5-----------5-5-5---------------|

Chorus:
E|-------------------------------------------------------------|
B|-------------------------------------------------------------|
G|-----------------7-7-7-----------7-7-7-----------6-6-6-6-6-6-|
D|-4-4-4---7-7-7---7-7-7---7-7-7---7-7-7---7-7-7---6-6-6-6-6-6-|
A|-4-4-4---7-7-7---5-5-5---7-7-7---5-5-5---7-7-7---4-4-4-4-4-4-|
E|-2-2-2---5-5-5-----------5-5-5-----------5-5-5---------------|


E|-----------------------------------------------------|
B|-----------------------------------------------------|
G|-----------------7-7-7-----------7-7-7-----------6~--|
D|-4-4-4---7-7-7---7-7-7---7-7-7---7-7-7---7-7-7---6~--|
A|-4-4-4---7-7-7---5-5-5---7-7-7---5-5-5---7-7-7---4~--|
E|-2-2-2---5-5-5-----------5-5-5-----------5-5-5-------|

End:

E|----|
B|----|
G|----|
D|-4~-|
A|-4~-|
E|-2~-|

please reate!
PEACE!
Tap to rate this tab
# A B C D E F G H I J K L M N O P Q R S T U V W X Y Z