Song name
# A B C D E F G H I J K L M N O P Q R S T U V W X Y Z

Rasmus - Ice tab

Artist : The Rasmus
Song : Ice
Album : Playboys
Tab by: Beberasmus bebe_4048@hotmail.com

Easy:

E|----------------------------------------------------------------|
B|----------------------------------------------------------------|
G|-----------------------------------------------7-7-7--7-7-7-7-7-|
D|-2-2-2--2-2-2-2--5-5-5--5-5-5-5--7-7-7--7-7-7--7-7-7--7-7-7-7-7-|
A|-2-2-2--2-2-2-2--5-5-5--5-5-5-5--7-7-7--7-7-7--5-5-5--5-5-5-5-5-|
E|-0-0-0--0-0-0-0--3-3-3--3-3-3-3--5-5-5--5-5-5-------------------|

Verse:
E|----------------------------------------------------------------|
B|-7-7-7--7-7-7-7--------------------------------5-5-5--5-5-5-5-5-|
G|-9-9-9--9-9-9-9--3-3-3--3-3-3-3--5-5-5--5-5-5--7-7-7--7-7-7-7-7-|
D|-9-9-9--9-9-9-9--5-5-5--5-5-5-5--7-7-7--7-7-7--7-7-7--7-7-7-7-7-|
A|-7-7-7--7-7-7-7--5-5-5--5-5-5-5--7-7-7--7-7-7--5-5-5--5-5-5-5-5-|
E|-----------------3-3-3--3-3-3-3--5-5-5--5-5-5-------------------|

Thats all the song
PLZ REATE
PEACE!
Tap to rate this tab
 
# A B C D E F G H I J K L M N O P Q R S T U V W X Y Z