Song name
# A B C D E F G H I J K L M N O P Q R S T U V W X Y Z

Rasmus - Myself tab

Help us improve GuitareTab! Take a short survey!
-------------------------------------------------------------------------------
			     Myself Solo - The Rasmus
-------------------------------------------------------------------------------
Tabbed By: Kyle Weston
Email: ootis197@hotmail.com

I couldn't find any correct tabs for the solo in this song, so here it is.
Email me if you have any corrections or comments.


Tuning: Standard

e|---------------------------------------------------------------------|
B|---------------------------------------------------------------------|
G|---------------------------------3/4-6-----3/4-6---------------------|
D|-----6-4-------------------4-6---------6---------7-6-4--4-6-7-6/(9)--|
A|-3/4-----7-6-7-4---3/4-6-7-------------------------------------------|
E|---------------------------------------------------------------------|

                x3                                     x3
e|-7-99-7-9-12-9-||-9\7-7/9-9/12-12-|-7-7-9-9-11-11-9-9-||-7-7--|
B|-7-99-7-9-12-9-||-9\7-7/9-9/12-12-|-5-5-7-7-9--9--7-7-||-5-5--|
G|---------------||-----------------|-------------------||------|
D|---------------||-----------------|-------------------||------|
A|---------------||-----------------|-------------------||------|
E|---------------||-----------------|-------------------||------|


Fairly simple.. Have fun!


| () let ring
| /  slide up
| \  slide down
| h  hammer-on
| p  pull-off
| ~  vibrato
| +  harmonic
| x  Mute note
===============================================================================
Related for Myself tab