Song name
# A B C D E F G H I J K L M N O P Q R S T U V W X Y Z

Rasmus - Shame tab

Artist: The Rasmus                          
Album: Peep   
Song: Shame                           
Tab by: Beberasmus bebe_4048@hotmail.com

Great song

Intro
E|----------------|----------------|
B|----------------|----------------|
G|----------7-6-5-|-5--5--5--5-5-7-|
D|-2--2-2-2-7-6-5-|-5--5--5--5-5-7-|x4
A|-2--2-2-2-5-4-3-|-3--3--3--3-3-5-|
E|-0--0-0-0-------|----------------|

Verse:
E|------------------|----------------|
B|------------------|----------------|
G|---9--7--6--5--5--|----------------|
D|---9--7--6--5--5--|-5--5--5--7-----|
A|-7-7--5--4--3--3--|-3--3--3--5-----|x4
G|------------------|----------------|
           .......
Chorus: 

E|----------------|----------------|
B|----------------|----------------|
G|----------7-6-5-|-5--5--5--5-5-7-|
D|-2--2-2-2-7-6-5-|-5--5--5--5-5-7-|x4
A|-2--2-2-2-5-4-3-|-3--3--3--3-3-5-|
E|-0--0-0-0-------|----------------|
Shame...

Verse 2:
E|------------------|----------------|
B|------------------|----------------|
G|---9--7--6--5--5--|----------------|
D|---9--7--6--5--5--|-5--5--5--7-----|
A|-7-7--5--4--3--3--|-3--3--3--5-----|x4
G|------------------|----------------|
           .......

Chorus 2: 

E|----------------|----------------|
B|----------------|----------------|
G|----------7-6-5-|-5--5--5--5-5-7-|
D|-2--2-2-2-7-6-5-|-5--5--5--5-5-7-|x4
A|-2--2-2-2-5-4-3-|-3--3--3--3-3-5-|
E|-0--0-0-0-------|----------------|
Shame...

Before solo:
E|----------------|-----12---------|----------------|
B|----------------|-12------12-----|----------------|
G|-9--------------|-------------12-|-11--15~--------|
D|----------------|----------------|----------------|
A|----------------|----------------|----------------|
E|----------------|----------------|----------------|

E|----------------|----------------|----------------|
B|----------------|----------------|----10h11p10~---|
G|-12--11---------|-12--11---------|----------------|
D|---------9------|---------9--10--|----------------|
A|----------------|----------------|----------------|
E|----------------|----------------|----------------|

E|----------------|----------------|
B|----------------|----------------|
G|----------------|----------------|
D|-2--2--2--2--2--|-2--2--2--2--2--|
A|-2--2--2--2--2--|-2--2--2--2--2--|
E|-0--0--0--0--0--|-0--0--0--0--0--|

Solo:
Coming soon...

After solo:

E|------------------|----------------|
B|------------------|----------------|
G|---9--7--6--5--5--|----------------|
D|---9--7--6--5--5--|-5--5--5--7-----|
A|-7-7--5--4--3--3--|-3--3--3--5-----|x4
E|------------------|----------------|

Last chorus:
E|----------------|----------------|
B|----------------|----------------|
G|----------7-6-5-|-5--5--5--5-5-7-|
D|-2--2-2-2-7-6-5-|-5--5--5--5-5-7-|x8
A|-2--2-2-2-5-4-3-|-3--3--3--3-3-5-|
E|-0--0-0-0-------|----------------|

End:
E|----------------|-----12---------|----------------|
B|----------------|-12------12-----|----------------|
G|-9--------------|-------------12-|-11--15~--------|
D|----------------|----------------|----------------|
A|----------------|----------------|----------------|
E|----------------|----------------|----------------|

E|----------------|----------------|----------------|
B|----------------|----------------|----10h11p10~---|
G|-12--11---------|-12--11---------|----------------|
D|---------9------|---------9--10--|----------------|
A|----------------|----------------|----------------|
E|----------------|----------------|----------------|

E|----------------|----------------|
B|----------------|----------------|
G|----------------|----------------|
D|-2--2--2--2--2--|-2--2--2--2--2--|x10
A|-2--2--2--2--2--|-2--2--2--2--2--|
E|-0--0--0--0--0--|-0--0--0--0--0--|

Very easy song
Pleace reate
PEACE!

Tap to rate this tab
# A B C D E F G H I J K L M N O P Q R S T U V W X Y Z