Song name
# A B C D E F G H I J K L M N O P Q R S T U V W X Y Z

Rasmus - Frog tab

Artist : The Rasmus
Song : Frog
Album : Peep
Tab by: Beberasmus bebe_4048@hotmail.com

Another fUNNY song!

Intro:
E|------------|
B|------------|
G|------------|
D|-2-2-2-4-5--|x3
A|-2-2-2-4-5--|
E|-0-0-0-2-3--|


E|---------------|
B|---------------|
G|---------------|
D|-2-2-2-4-5-2-5-|x4
A|-2-2-2-4-5-2-5-|
E|-0-0-0-2-3-0-3-|

Verse:
.......P.M.......
E|--------------|
B|--------------|
G|--------------|
D|-7-7-7-7-9-10-|x3
A|-7-7-7-7-9-10-|
E|-5-5-5-5-7-8--|

E|---------------|
B|---------------|
G|---------------|
D|-2-2-2-4-5-2-5-|x4
A|-2-2-2-4-5-2-5-|
E|-0-0-0-2-3-0-3-|

.......P.M.......
E|--------------|
B|--------------|
G|--------------|
D|-7-7-7-7-9-10-|x3
A|-7-7-7-7-9-10-|
E|-5-5-5-5-7-8--|

E|---------------|
B|---------------|
G|---------------|
D|-2-2-2-4-5-2-5-|x4
A|-2-2-2-4-5-2-5-|
E|-0-0-0-2-3-0-3-|

Chorus:
E|-----------------------|
B|-----------------------|
D|-7-----3-----7-----5---|
G|-7-----3-----7-----5---|x2
A|-5-----1-----5-----3---|
E|-----------------------|

E|------------|
B|------------|
G|------------|
D|-2-2-2-4-5--|x2
A|-2-2-2-4-5--|
E|-0-0-0-2-3--|

E|---------------|
B|---------------|
G|---------------|
D|-2-2-2-4-5-2-5-|x3
A|-2-2-2-4-5-2-5-|
E|-0-0-0-2-3-0-3-|

Verse 2:
.......P.M.......
E|--------------|
B|--------------|
G|--------------|
D|-7-7-7-7-9-10-|x3
A|-7-7-7-7-9-10-|
E|-5-5-5-5-7-8--|

E|---------------|
B|---------------|
G|---------------|
D|-2-2-2-4-5-2-5-|x4
A|-2-2-2-4-5-2-5-|
E|-0-0-0-2-3-0-3-|

.......P.M.......
E|--------------|
B|--------------|
G|--------------|
D|-7-7-7-7-9-10-|x3
A|-7-7-7-7-9-10-|
E|-5-5-5-5-7-8--|

E|---------------|
B|---------------|
G|---------------|
D|-2-2-2-4-5-2-5-|x4
A|-2-2-2-4-5-2-5-|
E|-0-0-0-2-3-0-3-|

Chorus:
E|-----------------------|
B|-----------------------|
D|-7-----3-----7-----5---|
G|-7-----3-----7-----5---|x2
A|-5-----1-----5-----3---|
E|-----------------------|

Bridge:
E|------------|
B|------------|
G|------------|
D|-2-2-2-4-5--|x3
A|-2-2-2-4-5--|
E|-0-0-0-2-3--|


E|---------------|
B|---------------|
G|---------------|
D|-2-2-2-4-5-2-5-|x5
A|-2-2-2-4-5-2-5-|
E|-0-0-0-2-3-0-3-|

Solo:
coming soon...

E|-----------------------|
B|-----------------------|
D|-7-----3-----7-----5---|
G|-7-----3-----7-----5---|x2
A|-5-----1-----5-----3---|
E|-----------------------|

End:
E|------------|
B|------------|
G|------------|
D|-2-2-2-4-5--|x3
A|-2-2-2-4-5--|
E|-0-0-0-2-3--|

E|---------------|
B|---------------|
G|---------------|
D|-2-2-2-4-5-2-5-|x4
A|-2-2-2-4-5-2-5-|
E|-0-0-0-2-3-0-3-|

Please reate!
PEACE!
Tap to rate this tab
 
# A B C D E F G H I J K L M N O P Q R S T U V W X Y Z