Song name
# A B C D E F G H I J K L M N O P Q R S T U V W X Y Z

Rasmus - Sos tab

Artist : The Rasmus
Song : S.O.S.
Album : Bravo CD's
Tab by: Beberasmus bebe_4048@hotmail.com

Nice cover of ABBA!
Its me again, I tabbed all the song plz reate it...

Intro: (piano)

Verse:(bass and piano)
Where are those happy times - they seem so hard to find.
I try to reach for you but you have closed your mind.
Whatever happened to our love?
I wish I understood.
It used to be so nice, it used to be so good.

Chorus:
E|---------------------------|
B|---------------------------|
G|-----5-5------3-3----------|
D|-3-3-5-5--5-5-3-3--3-3-3-3-|
A|-3-3-3-3--5-5-1-1--3-3-3-3-|x2
E|-1-1------3-3------1-1-1-1-|

E|----------------------------|
B|----------------------------|
G|---------8-8-8--------------|
D|-5-5-5-5/8-8-8--3-3-3-3-3-3-|
A|-5-5-5-5/6-6-6--3-3-3-3-3-3-|x2
E|-3-3-3-3/6-6-6--1-1-1-1-1-1-|

Preverse:
E|----------|
B|----------|
G|----------|
D|-3-3--3-2-|
A|-3-3--3-2-|
E|-1-1--1-0-|

Verse 2:
You seem so far away though you are standing near.
E|---------------|
B|---------------|
G|---------8-8-8-|
D|-5-5-5-5/8-8-8-|
A|-5-5-5-5/6-6-6-|
E|-3-3-3-3/6-6-6-|

You make me feel alive but something died, I fear.
E|---------------|
B|---------------|
G|---------8-8-8-|
D|-5-5-5-5/8-8-8-|
A|-5-5-5-5/6-6-6-|
E|-3-3-3-3/6-6-6-|

E|-----------------------------------|
B|-----------------------------------|
G|----------5-5-5-5----------8-8-8-8-|
D|-3-3-3-3--5-5-5-5--5-5-5-5/8-8-8-8-|
A|-3-3-3-3--3-3-3-3--5-5-5-5/6-6-6-6-|
E|-1-1-1-1-----------3-3-3-3/6-6-6-6-|

E|-------------------------------|
B|-------------------------------|
G|---------5-5-5-5---------------|
D|-3-3-3-3-5-5-5-5-5-5-5-5-5-5-5-|
A|-3-3-3-3-3-3-3-3-5-5-5-5-5-5-5-|
E|-1-1-1-1---------3-3-3-3-3-3-3-|

Chorus:
E|---------------------------|
B|---------------------------|
G|-----5-5------3-3----------|
D|-3-3-5-5--5-5-3-3--3-3-3-3-|
A|-3-3-3-3--5-5-1-1--3-3-3-3-|x2
E|-1-1------3-3------1-1-1-1-|

E|----------------------------|
B|----------------------------|
G|---------8-8-8--------------|
D|-5-5-5-5/8-8-8--3-3-3-3-3-3-|
A|-5-5-5-5/6-6-6--3-3-3-3-3-3-|x2
E|-3-3-3-3/6-6-6--1-1-1-1-1-1-|

Prebridge:
E|----------|
B|----------|
G|----------|
D|-3-3--3-2-|
A|-3-3--3-2-|
E|-1-1--1-0-|

Solo:
E|-------------------------|
B|-------------------------|
G|-------------------------|
D|-8-8-8-7-7-10-10-10-7-8~-|
A|-------------------------|
E|-------------------------|

E|------------------|
B|-3------4---3-----|
G|---3----------3---|
D|-----4----4-----4-|
A|------------------|
E|------------------|

E|-------------------------|
B|-------------------------|
G|-------------------------|
D|-8-8-8-7-7-10-10-10-7-8~-|
A|-------------------------|
E|-------------------------|

E|------------------|
B|-3------4---3-----|
G|---3----------3---|
D|-----4----4-----4-|
A|------------------|
E|------------------|

E|-------------------------------------------------|
B|-------------------------------------------------|
G|-------------------------------------------------|
D|-12-12-12-12-8-10~-10-10-12-8-8-8-7-7-10-10-7-8~-|
A|-------------------------------------------------|
E|-------------------------------------------------|

Chorus:
E|---------------------------|
B|---------------------------|
G|-----5-5------3-3----------|
D|-3-3-5-5--5-5-3-3--3-3-3-3-|
A|-3-3-3-3--5-5-1-1--3-3-3-3-|x2
E|-1-1------3-3------1-1-1-1-|

E|--------------------------------------------|
B|--------------------------------------------|
G|-5b-------------8-8-8-8-8-8-----------------|
D|----5-5-5-5-5-5/8-8-8-8-8-8-3-3-3-3-3-3-3-3-|
A|----5-5-5-5-5-5/6-6-6-6-6-6-3-3-3-3-3-3-3-3-|x2
E|----3-3-3-3-3-3/6-6-6-6-6-6-1-1-1-1-1-1-1-1-|

E|----------------------------|
B|----------------------------|
G|---------8-8-8--------------|
D|-5-5-5-5/8-8-8--3-3-3-3-3-3-|
A|-5-5-5-5/6-6-6--3-3-3-3-3-3-|x2
E|-3-3-3-3/6-6-6--1-1-1-1-1-1-|

End:
E|--------------|
B|--------------|
G|--------------|
D|-3-3--3-2--3~-|
A|-3-3--3-2--1~-|
E|-1-1--1-0--0~-|

Easy!
Plz reate!
PEACE!
Tap to rate this tab
# A B C D E F G H I J K L M N O P Q R S T U V W X Y Z