Song name
# A B C D E F G H I J K L M N O P Q R S T U V W X Y Z

Rasmus - Run To You tab

-------------------------------------------------------------------------------
			     RUN TO YOU - The Rasmus
-------------------------------------------------------------------------------
Tabbed by: Mono
Email: bowdowntothemono@hotmail.co.uk

Tuning: Standard (EADGBe)

Firstly, I'm indebted to Hristomirstanev, who worked out the chords for the verse and 
His chords aren't actually on the system yet, but they're pretty good.

Intro:
e|--------------------------------------------------------------------|
B|--------------------------------------------------------------------|
G|-77777777----------------7777555533333335755555533--------77775555--|
D|-77777777222222227777777777775555333333357555555337777777777775555--|
A|-55555555222222227777777755553333111111135333333117777777755553333--|
E|---------0000000055555555-------------------------55555555----------|

Pre-verse:
   ........
e|------------------|
B|------------------|
G|------------------|
D|-44444444---------|
A|-22222222--5-4-2--|
E|------------------|

Verse:
Repeat the first section x4, ending with the second section the first 3 times and the 
section the last time.
   ........................                ......
e|--------------------------|------------|-------xx-------------|
B|--------------------------|------------|-------xx-------------|
G|-44444444-----------------|------------|-------xx-------------|
D|-444444444444444455555555-|------------|-444444xx- FEEDBACK --|
A|-222222224444444455555555-|-5-4-2------|-444444xx-------------|
E|---------2222222233333333-|------------|-222222xx-------------|

Chorus:
e|--------------------------------------------------------------------|
B|--------------------------------------------------------------------|
G|-77777777----------------7777555533333335755555533--------77775555--|
D|-77777777222222227777777777775555333333357555555337777777777775555--|
A|-55555555222222227777777755553333111111135333333117777777755553333--|
E|---------0000000055555555-------------------------55555555----------|
Chorus contd.
e|-----------------------------------------------------------|
B|-----------------------------------------------------------|
G|---------55555555222222227777555533333333------------------|
D|-33333333555555552222222277775555333333335555555577777777--|
A|-33333333333333330000000055553333111111115555555577777777--|
E|-11111111--------------------------------3333333355555555--|

Verse (same as first, except end with this):
   ................
e|-------------------|
B|-------------------|
G|-------------------|
D|-4444444444444444--|
A|-4444444444444444--|
E|-2222222222222222--|

Chorus (the lead comes in right at the end to begin the solo)

Solo (the rhythm part is the intro):
e|-------------------------------------------------------------------|
B|-------------------------------------------------------------------|
G|-14~~------------10-12-13b-17-12--10-9h10p9~---10-9h10p9-----------|
D|--------12--10h12----------------------------------------10-12-10--|
A|-------------------------------------------------------------------|
E|-------------------------------------------------------------------|
Solo contd:
  [Not sure about this bit]
e|---------------------------------------------------------------|
B|----------------------10h12-13~--------------------------------|
G|---------------9h11h12-----------12~----10-9h10p9--------------|
D|--------9h11h12----------------------------------10-12~----11~-|
A|-9h11h12-------------------------------------------------------|
E|---------------------------------------------------------------|

Bridge part 1 (all PM):
e|--------------------------------------|
B|--------------------------------------|
G|----------77777777-44444444-66666666--|
D|-44444444-77777777-44444444-66666666--|
A|-44444444-55555555-22222222-44444444--|
E|-22222222-----------------------------|

Bridge part 2 (clean, maybe a bit of delay?):
e|-------------------------|
B|---6---------------------|
G|-----------9-------6-----|
D|-----7~------9~------6~--|
A|-5-------7-------4-------|
E|-------------------------|

Final Chorus:
e|--------------------------------------------------------------------|
B|--------------------------------------------------------------------|
G|-33333335755555533--------77775555--------555555552222222277775555--|
D|-33333335755555533777777777777555533333333555555552222222277775555--|
A|-11111113533333311777777775555333333333333333333330000000055553333--|
E|------------------55555555--------11111111--------------------------|

e|-----------------------------------------------------|
B|-----------------------14-10h11p10-------------------|
G|-33333333--------------------------12-10-9-----------|
D|-3333333355555555--------------------------12-11-12--|
A|-1111111155555555------------------------------------|
E|---------333333335/17--------------------------------|

Chorus to fade into choir solo.

The End.


| .  palm mute
| /  slide up
| \  slide down
| h  hammer-on
| p  pull-off
| ~  vibrato
| +  harmonic
| x  Mute note
===============================================================================
Tap to rate this tab
# A B C D E F G H I J K L M N O P Q R S T U V W X Y Z