Song name
# A B C D E F G H I J K L M N O P Q R S T U V W X Y Z

Rasmus - Keep Your Heart Broken tab

-------------------------------------------------------------------------------
			     Keep Your Heart broken - The Rasmus
-------------------------------------------------------------------------------
Tabbed by: Borbi01
Email: sebastianmorlang@googlemail.com


Please rate, leave comments and mail me if you have any suggestions, corrections etc...


Tuning: Standard


Intro: (clean)
e|---------------------------------------------------------------------------|
B|---------------------------------------------------------------------------|
G|---------------------------6-----------------------------------------------|
D|---4---6---7------4-7----4-------------------------------------------------| 3x
A|-4---4---4----4-2------4---------------------------------------------------|
E|---------------------------------------------------------------------------|

e|---------------------------------------------------------------------------|
B|---------------------------------------------------------------------------|
G|---------------------------------------------------------------------------|
D|---4---6---7---------------------------------------------------------------|
A|-4---4---4-----------------------------------------------------------------|
E|---------------------------------------------------------------------------|
I have listened really carefully and I'm sure that Pauli is returning to the B at the 
for 2 times during this clean part but just leave it out when it sounds wrong to you

distorted
e|---------------------------------------------------------------------------|
B|---------------------------------------------------------------------------|
G|-------------------------6-------------------------------------------------|
D|---4---6-7------4-7----4---------------------------------------------------| 4x
A|-4----------4-2------4-----------------------------------------------------|
E|---------------------------------------------------------------------------|

2nd guitar
e|---------------------------------------------------------------------------|
B|---------------------------------------------------------------------------|
G|--------------4-4-4--9-9-9-------------------------------------------------|
D|-4-4--4-4--4--4-4-4--9-9-9-------------------------------------------------|
A|-4-4--4-4--4--2-2-2--7-7-7-------------------------------------------------|
E|-2-2--2-2--2---------------------------------------------------------------|

Verse: (clean)
e|-9----9-----9----9-----9------9----9-----14----9----9----------------------|
B|---10---10---------10----9------10---10----------10---9--------------------|
G|---------------------------------------------------------------------------|
D|---------------------------------------------------------------------------|
A|---------------------------------------------------------------------------|
E|---------------------------------------------------------------------------|

continues with distorted part:
e|---------------------------------------------------------------------------|
B|---------------------------------------------------------------------------|
G|-7-----7\6-----------------------------------------------------------------|
D|-7-7-7-7\6-6-6-6--4--------6/7---------------------------------------------| 3x
A|-5-5-5-5\4-4-4-4--4-4-4-4--6/7---------------------------------------------|
E|------------------2-2-2-2--4/5---------------------------------------------|
     x x     x x x    x x x

e|---------------------------------------------------------------------------|
B|---------------------------------------------------------------------------|
G|-7-----7-----7----6-----6-----6------------6-6-6-6-------------------------|
D|-7-7-7-7-7-7-7-7--6-6-6-6-6-6-6-6--6-6-6-6-6-6-6-6-------------------------|
A|-5-5-5-5-5-5-5-5--4-4-4-4-4-4-4-4--4-4-4-4-4-4-4-4-------------------------|
E|---------------------------------------------------------------------------|
     x x   x x   x    x x   x x   x  x x x x

Chorus:
e|---------------------------------------------------------------------------|
B|---------------------------------------------------------------------------|
G|----------------------------------------------------9-9-9-9-9-9--7-(7)-----|
D|-7-7-7-7-7-7-7-7--2-2-2-2-2-2-2-2--4-4-4-4-4-4-4-4--9-9-9-9-9-9--7-(7)-----| 2x
A|-7-7-7-7-7-7-7-7--2-2-2-2-2-2-2-2--4-4-4-4-4-4-4-4--7-7-7-7-7-7--5-(5)-----|
E|-5-5-5-5-5-5-5-5--0-0-0-0-0-0-0-0--2-2-2-2-2-2-2-2-------------------------|

Bridge: (clean)
e|---------------------------------------------------------------------------|
B|---------------------------------------------------------------------------|
G|---------------------------6-----------------------------------------------|
D|---4---6---7------4-7----4-------------------------------------------------| 3x
A|-4---4---4----4-2------4---------------------------------------------------|
E|---------------------------------------------------------------------------|

e|---------------------------------------------------------------------------|
B|---------------------------------------------------------------------------|
G|---------------------------------------------------------------------------|
D|---4---6---7---------------------------------------------------------------|
A|-4---4---4-----------------------------------------------------------------|
E|---------------------------------------------------------------------------|

Then: (with distortion)
e|---------------------------------------------------------------------------|
B|---------------------------------------------------------------------------|
G|---------------------------------------------------------------------------|
D|-4-4-4--4-4-4--4-4-4--4-4-4--4-4-4--4-4-4--4-4-4--4-4-4-4-4----------------|
A|-4-4-4--4-4-4--4-4-4--4-4-4--4-4-4--4-4-4--4-4-4--4-4-4-4-4----------------|
E|-2-2-2--2-2-2--2-2-2--2-2-2--2-2-2--2-2-2--2-2-2--2-2-2-2-2----------------|

Outro:
e|---------------------------------------------------------------------------|
B|---------------------------------------------------------------------------|
G|-------------------------6-------------------------------------------------|
D|---4---6-7------4-7----4---------------------------------------------------| 3x
A|-4----------4-2------4-----------------------------------------------------|
E|---------------------------------------------------------------------------|

(clean)
e|---------------------------------------------------------------------------|
B|---------------------------------------------------------------------------|
G|---------------------------------------------------------------------------|
D|---4---6---7---------------------------------------------------------------|
A|-4---4---4-----------------------------------------------------------------|
E|---------------------------------------------------------------------------|

Just listen for the song structure...


| /  slide up
| \  slide down
| h  hammer-on
| p  pull-off
| ~  vibrato
| +  harmonic
| x  Mute note
===============================================================================
Tap to rate this tab
# A B C D E F G H I J K L M N O P Q R S T U V W X Y Z