Song name
# A B C D E F G H I J K L M N O P Q R S T U V W X Y Z

Rasmus - The Fight tab

-------------------------------------------------------------------------------
			     The Fight - The Rasmus
-------------------------------------------------------------------------------
Tabbed by: Borbi01
Email: sebastianmorlang@googlemail.com


Please rate, leave comments and correct me when there's something wrong...


Tuning: Standard

Intro & Verse:
e|--------------------------------------------------------------------------------------------|
B|--------------------------------------------------------------------------------------------|
G|------------------------------------------------------------------------4-2-----------------|
D|-10-10-10(4x)-------------9-9-9(4x)------------------------4-4-4(4x)--5-----4-5-------------| 3x
A|---------------9-9-9(4x)-------------7-7-7(4x)--2-2-2(4x)-----------------------2-----------|
E|----------------------------------------------------------------------------------3-2-------|
   x  x  x       x x x      x x x      x x x      x x x      x x x

e|--------------------------------------------------------------------------------------|
B|--------------------------------------------------------------------------------------|
G|--------------------------------------------------------------------------------------|
D|-10-10-10(4x)-------------9-9-9(4x)------------------------4-4-4(4x)---5--------------| 
A|---------------9-9-9(4x)-------------7-7-7(4x)--2-2-2(4x)--------------2--------------|
E|----------------------------------------------------------------------(0)-------------|
   x  x  x       x x x      x x x      x x x      x x x      x x x

Chorus:
e|---------------------------------------------------------------------------------------------|
B|---------------------------------------------------------------------------------------------|
G|-9---7---5-------9---7---5----------------------------7---5-------5---4---9---5---4---9--\---|
D|-9---7---5---5---9---7---5-------5-----------------2--7---5---5---5---4---9---5---4---9---\--|
A|-7---5---3---5---7---5---3-------5----------2------2--5---3---5---3---2---7---3---2---7----\-|
E|-------------3---------------3-3-3--2-2-3-2---3-2--0----------3------------------------------|
                               x x    x x

Chorus "2":
e|--------------------------------------------------------------------------|
B|--------------------------------------------------------------------------|
G|-9---7---5-------9---7---5----------------------------7---5-------5---4---|
D|-9---7---5---5---9---7---5-------5-----------------2--7---5---5---5---4---|
A|-7---5---3---5---7---5---3-------5----------2------2--5---3---5---3---2---|
E|-------------3---------------3-3-3--2-2-3-2---3-2--0----------3-----------|
                               x x    x x
                                      
e|---------------------------------------------------------------------------|
B|---------------------------------------------------------------------------|
G|-9----------9-------------5---4--------------------------------------------|
D|-9------5-9---9-5---------5---4--------------------------------------------|
A|-7--7-9-----------9-7-----3---2--------------------------------------------|
E|----------------------7----------------------------------------------------|
      x x x x x x x x x x

Bridge:
e|---------------------------------------------------------------------------|
B|---------------------------------------------------------------------------|
G|---------------------------------------------------------------------------|
D|---------------------------------------------------------------------------| 3x
A|-2-2-2--2-2-2--2-2-2-------------------------------------------------------|
E|-0-0-0--0-0-0--0-0-0-------------------------------------------------------|
   x x x  x x x  x x x

e|---------------------------------------------------------------------------|
B|---------------------------------------------------------------------------|
G|-------------------4-------------------------------------------------------|
D|-------------------2-------------------------------------------------------|
A|-2-2-2--2-2-2--2-2---------------------------------------------------------|
E|-0-0-0--0-0-0--0-0---------------------------------------------------------|
   x x x  x x x  x x

e|---------------------------------------------------------------------------|
B|---------------------------------------------------------------------------|
G|---------------------------------------------------------------------------|
D|---------------------------------------------------------------------------| 4x
A|-2-2-2--2-2-2--2-2-2-------------------------------------------------------|
E|-0-0-0--0-0-0--0-0-0-------------------------------------------------------|
   x x x  x x x  x x x

Chorus "3": (after the quiet bridge part)
e|-------------------------------------------------------------------------------------------------|
B|-------------------------------------------------------------------------------------------------|
G|-----4---7-----------4---7--------------------------4---7-----------6-----------6666666666666666-|
D|-4---4---7---7---4---4---7-------7------6--------4--4---7---7---9---6---4---9---6666666666666666-|
A|-4---2---5---7---4---2---5-------7------6--------4--2---5---7---9---4---4---9---4444444444444444-|
E|-2-----------5---2-----------5-5-5--4-4-4-9-5-4--2----------5---7-------2---7--------------------|
                               x x    x x                                                 xxxxxxxx

Ending:
e|---------------------------------------------------------------------------|
B|---------------------------------------------------------------------------|
G|---------------------------------------------------------------------------|
D|---------------------------------------------------------------------------| 8x
A|-4-4-4--4-4-4--4-4-4-------------------------------------------------------|
E|-2-2-2--2-2-2--2-2-2-------------------------------------------------------|


song structure:

-Intro & Verse
-Chorus
-Intro & Verse
-Chorus "2"
-Bridge
-Chorus "3"
-Ending



| /  slide up
| \  slide down
| h  hammer-on
| p  pull-off
| ~  vibrato
| +  harmonic
| x  Mute note
===============================================================================
Tap to rate this tab
# A B C D E F G H I J K L M N O P Q R S T U V W X Y Z