Song name
# A B C D E F G H I J K L M N O P Q R S T U V W X Y Z

Rasmus - Live Forever tab

-------------------------------------------------------------------------------
			     Live Forever - The Rasmus
-------------------------------------------------------------------------------
Tabbed by: Borbi01
Email: sebastianmorlang@googlemail.com


Tuning: Standard


Intro: (transcribed for guitar)
e|---------------------------------------------------------------------------|
B|------8-8--7-5--3--0--3-5--8-5-8-10-12-----7-4-----------------------------|
G|----------------------------------------9----------------------------------|
D|---9-----------------------------------------------------------------------| 2x
A|-7-------------------------------------------------------------------------|
E|---------------------------------------------------------------------------|

Verse:
e|----------------------------------------------------2----------------------|
B|-------------------------3--------3--------1------3------------------------|
G|-------4--------3------4--------4--------2------2--------------------------|
D|-----5--------4------4--------5--------2------0----------------------------| 2x
A|---5--------4------2-----------------0-------------------------------------|
E|-3--------2-----------------3----------------------------------------------|

e|---------------------------------------------------------------------------|
B|---------------------------------------------------------------------------|
G|---------------------------------------------------------------------------|
D|------------------4-4-4-4-4-4-4-4------------------------------------------|
A|-5-5-5-5-5-5-5-5--2-2-2-2-2-2-2-2------------------------------------------|
E|-3-3-3-3-3-3-3-3-----------------------------------------------------------|
   x x x x x x x x  x x x x x x x x

Pre-Chorus: Em;G;C;B 2x

(Listen for the rythm...)

Chorus:
e|------------------------------------------------------------(0)------------|
B|-------------------------4------------------------------4---(0)------------|
G|-------0--------3------4----------0--------0--------3---4---(0)------------|
D|-----2--------4------4----------2--------2--------4-----4---(2)------------|
A|---2--------4------2----------2--------2--------4-------2------------------|
E|-0--------2-----------------0--------0--------2----------------------------|

Chorus "2":
e|---------------------------------------------------------------------------------------|
B|-------------------------4-----------------------------------4-------------------------|
G|-------0--------3------4----------0--------0--------3------4-------------0-------------|
D|-----2--------4------4----------2--------2--------4------4--------2----2---------------|
A|---2--------4------2----------2--------2--------4------2--------2----2-----------------|
E|-0--------2-----------------0--------0--------2---------------0----2-------------------|

e|-------3--------2-------------0----------------------------------------------|
B|--------------2----------4----0----------------------------------------------|
G|-----4------3----------4------0----------------------------------------------|
D|---5-----------------4--------2----------------------------------------------|
A|-------------------2---------------------------------------------------------|
E|-3--------2------------------------------------------------------------------|

Outro: (transcribed for guitar)
e|---------------------------------------------------------------------------|
B|--8-8--7-5--3--0--3-5--8-5-8-10-12---------7-4-----------------------------|
G|----------------------------------------9----------------------------------|
D|---------------------------------------------------------------------------| 
A|---------------------------------------------------------------------------|
E|---------------------------------------------------------------------------|

e|---------------------------------------------------0---------------------------|
B|---------------------------------------------------0---------------------------|
G|---------------------------------------------------0---------------------------|
D|------5-5--4-2--0-----0-2-----------7-8------------2---------------------------|
A|---2---------------2------(7)-----7-------7---6----2---------------------------|
E|-0---------------------------(7)-------------------0---------------------------|


song structure:

-Intro
-Verse
-Pre-Chorus
-Chorus
-Verse
-Pre-Chorus
-Chorus "2"
-Outro



| /  slide up
| \  slide down
| h  hammer-on
| p  pull-off
| ~  vibrato
| +  harmonic
| x  Mute note
===============================================================================
Tap to rate this tab
 
# A B C D E F G H I J K L M N O P Q R S T U V W X Y Z