Song name
# A B C D E F G H I J K L M N O P Q R S T U V W X Y Z

Rasmus - Sail Away Live tab

-------------------------------------------------------------------------------
			     Sail Away Live Solo - The Rasmus
-------------------------------------------------------------------------------
Tabbed by: Borbi01
Email: sebastianmorlang@googlemail.com

Tuning: Standard


Solo: (from N-Joy Secret Gig 2005)
e|--------------------------------------------------------------------------------|
B|----------------------------------------------8h10-8--12-----------15-13--------|
G|-11--12-----12-11---------------------9-11-12------------11--11h12--------------|
D|--------12--------12--14~-12~--10-12-------------------------------------12-----|
A|--------------------------------------------------------------------------------|
E|--------------------------------------------------------------------------------|

e|------------------------------------|
B|-13--12-----------------------------|
G|---------12-------------------------|
D|------------12-10-9-10--9-----------|
A|--------------------------12-10-9---|
E|------------------------------------|



| /  slide up
| \  slide down
| h  hammer-on
| p  pull-off
| ~  vibrato
| +  harmonic
| x  Mute note
===============================================================================
Tap to rate this tab
 
# A B C D E F G H I J K L M N O P Q R S T U V W X Y Z