Rasmus - Immortal tab

The rasmus - Immortal

|-------------|-----------------|---------------------------|
|-------------|-----------------|---------------------------|
|-------------|-----------------|---------------------------|
|-------------|-----------------|---------------------------|
|--------1-1--|--4-4-4-4-3-1----|--5-5-5-5-3-3-3-1-3-5-3-1--|
|--3-3-1------|--------------3--|---------------------------|

|-------------|---------|
|-------------|---------|
|-------------|---------|
|-------------|--7-5-3--|
|--------1-1--|--5-3-1--|
|--3-3-1------|---------|

Enjoy it (:
Tap to rate this tab
 
# A B C D E F G H I J K L M N O P Q R S T U V W X Y Z