Song name
# A B C D E F G H I J K L M N O P Q R S T U V W X Y Z

Rasmus - Tempo tab

This is the song "Tempo" by "The Rasmus".
I was going to put a Guitar Pro tab but:

1- too lazy to do the other instruments .
2- People don't care about Guitar Pro at all !! (according to my other 2 tabs).
3- I don't wanna get bored of the song from so much listening, cuz it's a great song, 
and this is what happened to me while tabbing the other 2 tabs of mine (currently. 
hopefully I will have more in the future).



So here it is:
Standard Tuning: (E;A;D;G;B;e) Low to high
Timing: 129 (according to guitar pro, I am not sure it's the real thing, but it's 
exactly 129 in guitar pro).

P.S: every note here is sixteenth except the ones noted (even rests)


Have Fun !


Part 1:
12 - 10 - 8 - 5 - 7 - 3 (in case you got confused)

e|------------------|
B|12---10---8-57-3--|
G|------------------|
D|------------------|     x8
A|------------------|
E|------------------|


Repeat Part 1 4 Times with drums and bass

Repeat Part 1 3 Times with (not sure what) in the background

Then Part 1 alone again 1 time

Then Part 2 with Synth or Strings, Drums And Bass :
12 - 8 - 10 - 7 - 8 - 5 - 7 - 3

e|------------------|
B|12-8-10-7-8-57-3--|
G|------------------|
D|------------------|     x24
A|------------------|
E|------------------|


Then Vocals a little bit

Then back to Part 1

e|------------------|
B|12---10---8-57-3--|
G|------------------|
D|------------------|     x8
A|------------------|
E|------------------|

And back to Part 2

e|------------------|
B|12-8-10-7-8-57-3--|
G|------------------|
D|------------------|     x16
A|------------------|
E|------------------|

Then Vocals

Then part 1

e|------------------|
B|12---10---8-57-3--|
G|------------------|
D|------------------|     x1
A|------------------|
E|------------------|

Part 2

e|------------------|
B|12-8-10-7-8-57-3--|
G|------------------|
D|------------------|     x16
A|------------------|
E|------------------|

Then something really weird happens, and I don't wanna know what it is.

Part 1 Fade in:

e|------------------|
B|12---10---8-57-3--|
G|------------------|
D|------------------|     x7
A|------------------|
E|------------------|

Part 2 (alone):

e|------------------|
B|12-8-10-7-8-57-3--|
G|------------------|
D|------------------|     x1
A|------------------|
E|------------------|

Part 2 with Instruments:

e|------------------|
B|12-8-10-7-8-57-3--|
G|------------------|
D|------------------|     x3
A|------------------|
E|------------------|

Part 2 alone again:

e|------------------|
B|12-8-10-7-8-57-3--|
G|------------------|
D|------------------|     x1
A|------------------|
E|------------------|

Part 2 with instruments and Vocals:

e|------------------|
B|12-8-10-7-8-57-3--|
G|------------------|
D|------------------|     x30
A|------------------|
E|------------------|


And that's it, Hope you liked it, if you did, please, vote and comment :)
Tap to rate this tab
 
# A B C D E F G H I J K L M N O P Q R S T U V W X Y Z