Song name
# A B C D E F G H I J K L M N O P Q R S T U V W X Y Z

Rasmus - One And Only tab

Title: One and Only
Artist: Rasmus

Tabbed by: Mikhail Punjani (mikkyd@hotmail.com)

Tuning: Standard (E A D G B E)

This is a simple song to play. The chords follow the same progression throughout the song.
Oh and this is the correct version.. Have fun..

Intro/Verse/Chorus:

Dbm A E B


Bridge: Repeat 4x

E|---------------------------------------------------------------------|| 
B|---5-----5---------5-----5---------5-----5----------5-----5---5------||
G|-----6-----6---6-----6-----6---6-----6-----6---6------6---------6----||
D|-------6-----6---------6-----6---------6-----6-----------------------||
A|-4------------------------------------------------2-----2---3--------||
E|-----------------5---------------0-----------------------------------||
  pm...................................................................

Then end with: (play this then back to normal chords)

E|------------------------------||
B|------------------------------||
G|------------------------------||
D|---4-----4-----4---5----------||
A|---2-----2-----2---3----------||
E|------------------------------||

If you have any questions or comments e-mail me at mikkyd@hotmail.com
Tap to rate this tab
# A B C D E F G H I J K L M N O P Q R S T U V W X Y Z