Guitaretab - guitar tabs
Song name
# A B C D E F G H I J K L M N O P Q R S T U V W X Y Z
Home / R / Rasmus / Peep tab

Rasmus - Peep tab

TAB for: 		guitar
Title:		Peep
Artist:		The Rasmus
Album/Single:	Peep/-
Tabbed by: 	Saki Sayuri Kansaki


I know that Iíve already put a TAB for this song online, but Iíve made an easier version 
it. Have fun to play it.

Signs:
~   =   let note ring


Riff 1: (0:00)
E|--------------|-------------|
H|--6-7-8-------|--6-7-8------|
G|--------66-6--|--------66~--|
D|--------------|-------------|		2x
A|--------------|-------------|
E|--------------|-------------|

Riff 2: (0:11)
E|----------00-0--|----------00~--|
H|--10-9-10-------|--10-9-10------|
G|----------------|---------------|
D|----------------|---------------|		2x
A|----------------|---------------|
E|----------------|---------------|
[ Tab from: http://www.guitaretab.com/r/rasmus/50296.html ]
Riff 3: (0:19)
E|--9-7-9-10-10-------|--9-7-9-10-10--10--|
H|--------------9-10--|-------------------|
G|--------------------|-------------------|
D|--------------------|-------------------|		2x
A|--------------------|-------------------|
E|--------------------|-------------------|

Riff 4: (0:27)
E|-------7-------7--|-------7---00--|
H|--7-10----7-10----|--7-10---7-----|
G|------------------|---------------|
D|------------------|---------------|		2x
A|------------------|---------------|
E|------------------|---------------|

Riff 3: (0:36)
E|--9-7-9-10-10-------|--9-7-9-10-10--10--|
H|--------------9-10--|-------------------|
G|--------------------|-------------------|
D|--------------------|-------------------|		2x
A|--------------------|-------------------|
E|--------------------|-------------------|

Riff 5: (0:45)
E|---------|
H|--9-10~--|
G|---------|
D|---------|
A|---------|
E|---------|


Thatís it! Like always you can mail me if you found any mistakes or have corrections and 
nadine.reinartz@web.de
Related for Peep tab