Song name
# A B C D E F G H I J K L M N O P Q R S T U V W X Y Z

Rasmus - Dead Letters tab

-------------------------------------------------------------------------------
			     Dead Letters Tour Concerts (Intro) - The Rasmus
-------------------------------------------------------------------------------
Tabbed by: XaBi
Email:

Tuning: standard

Here is a way of playing the intro of The Rasmus' Dead Letters tour between 2003 & 2004 
they started the concerts with First Day Of My Life.
I don't know if this tab is correct but it sounds similar

e|------------------------------------------------------------|
B|------------------------------------------------------------|
G|-6-6----6-6--4-4--2-2----2-2--4-4--6-6----6-6--4-4--2-2-----|
D|-6-6----6-6--4-4--2-2----2-2--4-4--6-6----6-6--4-4--2-2-----|
A|-4-4----4-4--2-2--0-0----0-0--2-2--4-4----4-4--2-2--0-0-----|
E|------------------------------------------------------------|

e|----------------------------------------------------------|
B|----------------------------------------------------------|
G|-2-2--4-4-15----------------------------------------------|
D|-2-2--4-4/15\---------------------------------------------|
A|-0-0--2-2/13\---------------------------------------------|
E|----------------------------------------------------------|

|- beggining of First Day Of My Life -|

e|----------------------------------------------------------|
B|----------------------------------------------------------|
G|-6-6------------------------------------------------------|
D|-6-6--666677776666--6-6--666677776666---------------------|
A|-4-4----------------4-4---------------7-7-----------------|
E|--------------------------------------5-5-----------------|

e|----------------------------------------------------------|
B|----------------------------------------------------------|
G|----------------------------------------------------------|
D|-666677776666-------6666-------6666-----------------------|
A|---------------7-7--------9-9-----------------------------|
E|---------------5-5--------7-7-----------------------------|

play the riff of FDOML twice
.........


| /  slide up
| \  slide down
| h  hammer-on
| p  pull-off
| ~  vibrato
| +  harmonic
| x  Mute note
===============================================================================
Tap to rate this tab
# A B C D E F G H I J K L M N O P Q R S T U V W X Y Z