Song name
# A B C D E F G H I J K L M N O P Q R S T U V W X Y Z

Rasmus - No Fear tab

Help us improve GuitareTab! Take a short survey!
Artist :The Rasmus                          
Album :Hide From The Sun   
Song: No Fear                            
Tab by:Beberasmus bebe_4048@hotmail.com

GOOD SONG!
Please reate!

 
|---------------------------------------------------|
|---------------------------------------------------| 2x
|--------------------------4-4--4-4--4--------------|
|6-6--6-6--6--2-2--2-2--2--4-4--4-4--4--4-4--4-4--4-|
|6-6--6-6--6--2-2--2-2--2--2-2--2-2--2--4-4--4-4--4-|
|4-4--4-4--4--0-0--0-0--0--2-2--2-2--2--2-2--2-2--2-|

|-------------|
|-------------|
|-------------|
|-2~~---------|
|-2~~---------|
|-0~~-7-4-7-7-|


Verse
 
|------------------------------------|   |-------| |--------|
|------------------------------------|   |-9-----| |--------|
|------8---4---8---9-----------------|   |---8-7~| |--------|
|-6----8---4---8---9---8--9-----6----|   |-------| |--------|
|-6----6---2---6---7---8--9-----6----|   |-------| |--------|
|-4--------------------6--7-----4----|   |-------| |--7-4-7-|
Girl, you live your life...

|------------------------------------|   |--------|
|------------------------------------|   |--------|
|------8---4---8---9-----------------|   |--------|
|-6----8---4---8---9---8--9-----6----|   |--------|
|-6----6---2---6---7---8--9-----6----|   |--------|
|-4--------------------6--7-----4----|   |--7-4-7-|
Girl, your...


Chorus:
 
|---------------------------------------------------|
|---------------------------------------------------| x2
|--------------------------4-4--4-4--4--------------|
|6-6--6-6--6--2-2--2-2--2--4-4--4-4--4--4-4--4-4--4-|
|6-6--6-6--6--2-2--2-2--2--2-2--2-2--2--4-4--4-4--4-|
|4-4--4-4--4--0-0--0-0--0--2-2--2-2--2--2-2--2-2--2-|
No fear...

|-------------|
|-------------|
|-------------|
|-2~~---------|
|-2~~---------|
|-0~~-7-4-7-7-|

Verse 2:

|------------------------------------|   |-------| |--------|
|------------------------------------|   |-9-----| |--------|
|------8---4---8---9-----------------|   |---8-7~| |--------|
|-6----8---4---8---9---8--9-----6----|   |-------| |--------|
|-6----6---2---6---7---8--9-----6----|   |-------| |--------|
|-4--------------------6--7-----4----|   |-------| |--7-4-7-|
Girl...

|------------------------------------|   |--------|
|------------------------------------|   |--------|
|------8---4---8---9-----------------|   |--------|
|-6----8---4---8---9---8--9-----6----|   |--------|
|-6----6---2---6---7---8--9-----6----|   |--------|
|-4--------------------6--7-----4----|   |--7-4-7-|
Girl, close... 



Chorus:
 
|---------------------------------------------------|
|---------------------------------------------------| x2
|--------------------------4-4--4-4--4--------------|
|6-6--6-6--6--2-2--2-2--2--4-4--4-4--4--4-4--4-4--4-|
|6-6--6-6--6--2-2--2-2--2--2-2--2-2--2--4-4--4-4--4-|
|4-4--4-4--4--0-0--0-0--0--2-2--2-2--2--2-2--2-2--2-|
No fear...

|-------------|
|-------------|
|-------------|
|-2~~---------|
|-2~~---------|
|-0~~-7-4-7-7-|

Bridge:

|----------------|
|----------------| 2x
|--------4-4-----|
|6-6-2-2-4-4-4-4-|
|6-6-2-2-2-2-4-4-|
|4-4-0-0-2-2-2-2-|
Ahhh..

Solo:

e|----------------------------------------|
H|----------------------------------------|
G|1~~-3~~---------------------------------|
D|-------4-3-4~~-----~3-3-3-~~~~3-3-3--1~~|
A|----------------------------------------|
E|----------------------------------------|

e|18-20-21/--1---18-20-21/--2---18-20-21/-----------------|
H|----------------------------------------6--6-6-6--4~~~~~|
G|--------------------------------------------------------|
D|--------------------------------------------------------|
A|--------------------------------------------------------|
E|--------------------------------------------------------|

Last chorus:
|---------------------------------------|
|---------------------------------------|
|-------------------6-6-6-6-6-----------|
|-8-8-8-8-4-4-4-4-4-6-6-6-6-6-6-6-6-6-6-|
|-8-8-8-8-4-4-4-4-4-4-4-4-4-4-6-6-6-6-6-|
|-6-6-6-6-2-2-2-2-2-4-4-4-4-4-4-4-4-4-4-|
 No fear....

|---------------------------------------|
|---------------------------------------|
|-------------------6-6-6-6-6-----------|
|-8-8-8-8-4-4-4-4-4-6-6-6-6-6-6-6-6-6-6-|
|-8-8-8-8-4-4-4-4-4-4-4-4-4-4-6-6-6-6-6-|
|-6-6-6-6-2-2-2-2-2-4-4-4-4-4-4-4-4-4-4-|
 

|---------------------------------------|
|---------------------------------------|x4
|-------------------6-6-6-6-6-----------|
|-8-8-8-8-4-4-4-4-4-6-6-6-6-6-6-6-6-6-6-|
|-8-8-8-8-4-4-4-4-4-4-4-4-4-4-6-6-6-6-6-|
|-6-6-6-6-2-2-2-2-2-4-4-4-4-4-4-4-4-4-4-|
 No fear...

Easy
Please reate!
PEACE!
Related for No Fear tab