Song name
# A B C D E F G H I J K L M N O P Q R S T U V W X Y Z

Rasmus - Keep Your Heart Broken tab

Band:The Rasmus
Song:keep Your Heart Broken
Album:Hide From The Sun
Tab by:Beberasmus bebe_4048@hotmai.com

Intro

E-------------------------|
B-------------------------|
G--------------------6----|
D---4---6-7--4-7---4------|
A-4---4-----4----4--------|
E-------------------------|x 8

Verse Enfolding your love...

E-9------9----9---|
B---10-----10---9-|
G-----------------|
D-----------------|
A-----------------|
E-----------------| slow

Verse continued

E-------------------------------------  -----------------------------------|
B-------------------------------------  -----------------------------------|
G----------------------------4-6------  -4-4-4-4-4-4-4-4--6-6-6-6-6-6-6-6--|
D-4-4-4-4--6-6-6-6--7-7-7-7--4-6------  -4-4-4-4-4-4-4-4--6-6-6-6-6-6-6-6--|
A-4-4-4-4--6-6-6-6--7-7-7-7--2-4------  -2-2-2-2-2-2-2-2--4-4-4-4-4-4-4-4--|
E-2-2-2-2--4-4-4-4--5-5-5-5-----------X3-----------------------------------|

Prechorus:

|-----------|
|-----------|
|-----------|
|-(13)-(13)-|x3
|-(13)-(13)-|
|-(13)-(13)-|

Chorus My love will grow black..

E----------------------------------------------------------|
B----------------------------------------------------------|
G----------------------------------------6-6-6-6-6-6--4-4--|
D-7-7-7-7-7-7--2-2-2-2-2-2--4-4-4-4-4-4--6-6-6-6-6-6--4-4--|
A-7-7-7-7-7-7--2-2-2-2-2-2--4-4-4-4-4-4--4-4-4-4-4-4--2-2--|
E-5-5-5-5-5-5--0-0-0-0-0-0--2-2-2-2-2-2--------------------| X 2

E-------------------------|
B-------------------------|
G--------------------6----|
D---4---6-7--4-7---4------|
A-4---4-----4----4--------|
E-------------------------|x 2


Verse2

E-9------9----9---|
B---10-----10---9-|
G-----------------|
D-----------------|
A-----------------|
E-----------------| slow

Verse 2 continued

E-------------------------------------  -----------------------------------|
B-------------------------------------  -----------------------------------|
G----------------------------6-6-6-6--  -4-4-4-4-4-4-4-4--6-6-6-6-6-6-6-6--|
D-4-4-4-4--6-6-6-6--7-7-7-7--6-6-6-6--  -4-4-4-4-4-4-4-4--6-6-6-6-6-6-6-6--|
A-4-4-4-4--6-6-6-6--7-7-7-7--4-4-4-4--  -2-2-2-2-2-2-2-2--4-4-4-4-4-4-4-4--|
E-2-2-2-2--4-4-4-4--5-5-5-5-----------X3-----------------------------------|

Chorus My love will grow black..

E----------------------------------------------------------|
B----------------------------------------------------------|
G----------------------------------------6-6-6-6-6-6--4-4--|
D-7-7-7-7-7-7--2-2-2-2-2-2--4-4-4-4-4-4--6-6-6-6-6-6--4-4--|
A-7-7-7-7-7-7--2-2-2-2-2-2--4-4-4-4-4-4--4-4-4-4-4-4--2-2--|
E-5-5-5-5-5-5--0-0-0-0-0-0--2-2-2-2-2-2--------------------| X 2

E-------------------------|
B-------------------------|
G--------------------6----|
D---4---6-7--4-7---4------|
A-4---4-----4----4--------|
E-------------------------|x 4


Interlude: Broken broken...

E----------|
B----------|
G----------|
D-4--4--4--|
A-4--4--4--|
E-2--2--2--|X4


Chorus My love will grow black..

E----------------------------------------------------------|
B----------------------------------------------------------|
G----------------------------------------6-6-6-6-6-6--4-4--|
D-7-7-7-7-7-7--2-2-2-2-2-2--4-4-4-4-4-4--6-6-6-6-6-6--4-4--|
A-7-7-7-7-7-7--2-2-2-2-2-2--4-4-4-4-4-4--4-4-4-4-4-4--2-2--|
E-5-5-5-5-5-5--0-0-0-0-0-0--2-2-2-2-2-2--------------------| X 2

Forever and after my love!
E-------------------------|
B-------------------------|
G--------------------6----|
D---4---6-7--4-7---4------|
A-4---4-----4----4--------|
E-------------------------|x 4

E-------------------------|
B-------------------------|
G-------------------------|
D---4---6-7~--------------|
A-4---4-------------------|
E-------------------------|

Easy! please rate

Peace!
Tap to rate this tab
 
# A B C D E F G H I J K L M N O P Q R S T U V W X Y Z