Song name
# A B C D E F G H I J K L M N O P Q R S T U V W X Y Z

Rasmus - Last Generation tab

Artist : The Rasmus
Song : Last Generation
Album : Hide From the sun 
Tab by: Beberasmus bebe_4048@hotmail.com

Nice song!
 
Intro:
E|--------------------------|
B|--------------------------|
G|---5-2---2--2-3-2---------|
D|-------2----------2p1p0---|x4
A|-3------------------------|
E|--------------------------|

Verse:
-------------------------------P.M.--------------------------------
E|-----------------------------------------------------------------|
B|-----------------------------------------------------------------|
G|-----------------------------------------------------------------|
D|-----------------------------------------------------------------|x2
A|-3-3-3-3-3-3-3---------------6-6-6-6-6-6-6-6---------------------|
E|---------------1-1-1-1-1-1-1-----------------6-6-6-6-6-6-6-6-6---|
You stopped and left the car...

Prechorus:
E|----------------------|
B|----------------------|
G|-----5----------------|
D|--3--5----------3-5---|
A|--3-3-----------3-5---|
E|-1-------------1--3---|
You ran into...

Chorus:
E|------------------------------------|
B|------------------------------------|
G|-5-5-5-5-----------------8-8-8-8----|
D|-5-5-5-5-3-3-3-3-8-8-8-8-8-8-8-8----|x2
A|-3-3-3-3-3-3-3-3-8-8-8-8-6-6-6-6----|
E|---------1-1-1-1-6-6-6-6------------|
Rest in peace...

E|---------------------------------------------|
B|---------------------------------------------|
G|-5-5-5-5---------8-x-x-8-x-x-8-7-x-x-7-x-x-7-|
D|-5-5-5-5-3-3-3-3-8-x-x-8-x-x-8-7-x-x-7-x-x-7-|
A|-3-3-3-3-3-3-3-3-6-x-x-6-x-x-6-5-x-x-5-x-x-5-|
E|---------1-1-1-1-----------------------------|
Of the last generation..

Then:
E|--------------------------|
B|--------------------------|
G|---5-2---2--2-3-2---------|
D|-------2----------2p1p0---|x4
A|-3------------------------|
E|--------------------------|


Verse 2:
-------------------------------P.M.--------------------------------
E|-----------------------------------------------------------------|
B|-----------------------------------------------------------------|
G|-----------------------------------------------------------------|
D|-----------------------------------------------------------------|x2
A|-3-3-3-3-3-3-3---------------6-6-6-6-6-6-6-6---------------------|
E|---------------1-1-1-1-1-1-1-----------------6-6-6-6-6-6-6-6-6---|
I've seen this in my dream...

Prechorus:
E|----------------------|
B|----------------------|
G|-----5----------------|
D|--3--5----------3-5---|
A|--3-3-----------3-5---|
E|-1-------------1--3---|
And those..

Chorus:
E|------------------------------------|
B|------------------------------------|
G|-5-5-5-5-----------------8-8-8-8----|
D|-5-5-5-5-3-3-3-3-8-8-8-8-8-8-8-8----|x2
A|-3-3-3-3-3-3-3-3-8-8-8-8-6-6-6-6----|
E|---------1-1-1-1-6-6-6-6------------|
Rest in peace..

E|---------------------------------------------|
B|---------------------------------------------|
G|-5-5-5-5---------8-x-x-8-x-x-8-7-x-x-7-x-x-7-|
D|-5-5-5-5-3-3-3-3-8-x-x-8-x-x-8-7-x-x-7-x-x-7-|
A|-3-3-3-3-3-3-3-3-6-x-x-6-x-x-6-5-x-x-5-x-x-5-|
E|---------1-1-1-1-----------------------------|
Of the last generation..

Then:
E|--------------------------|
B|--------------------------|
G|---5-2---2--2-3-2---------|
D|-------2----------2p1p0---|x4
A|-3------------------------|
E|--------------------------|

Solo:
E|-8-8-8-10-8-8-8-6--8-8-8-10--10-10-10-14-|
B|-----------------------------------------|
G|-----------------------------------------|
D|-----------------------------------------|x2
A|-----------------------------------------|
E|-----------------------------------------|

Then:
E|-------------|
B|-------------|
G|-5-5-5-5-5-5-|
D|-5-5-5-5-5-5-|x2
A|-3-3-3-3-3-3-|
E|-------------|

Chorus:
E|------------------------------------|
B|------------------------------------|
G|-5-5-5-5-----------------8-8-8-8----|
D|-5-5-5-5-3-3-3-3-8-8-8-8-8-8-8-8----|x4
A|-3-3-3-3-3-3-3-3-8-8-8-8-6-6-6-6----|
E|---------1-1-1-1-6-6-6-6------------|
Rest in peace..

E|---------------------------------------------|
B|---------------------------------------------|
G|-5-5-5-5---------8-x-x-8-x-x-8-7-x-x-7-x-x-7-|
D|-5-5-5-5-3-3-3-3-8-x-x-8-x-x-8-7-x-x-7-x-x-7-|
A|-3-3-3-3-3-3-3-3-6-x-x-6-x-x-6-5-x-x-5-x-x-5-|
E|---------1-1-1-1-----------------------------|
Of the last generation..

End:
E|-------|
B|-------|
G|-5~~~--|
D|-5~~~--|
A|-3~~~--|
E|-------|


Please reate!
PEACE!
Tap to rate this tab
 
# A B C D E F G H I J K L M N O P Q R S T U V W X Y Z