Song name
# A B C D E F G H I J K L M N O P Q R S T U V W X Y Z

Rasmus - Wicked Moments tab

Artist : The Rasmus                     |
Song   : Wicked Moments                 |
Album  : Playboys/Hell Of A Collection  |
Tuning : Standard                       |
________________________________________|

Intro :

Part I
|------------|8x
|------------|
|------------|
|-2----------|
|-------0----|
|---0-3---0--|

Part II 
|-------------|4x
|-------------|
|-x9-8/9xxxxx-|
|-x9-8/9xxxxx-|
|----6/7------|
|-------------|

Verse

|--------------------------------------------------|
|--------------------------------------------------|
|4~~~~~~~~~~~~~~~~~~~~~~~~~~~~~~~~~~~~~~~~~~/9~\4~~|
|--------------------------------------------------|
|--------------------------------------------------|
|--------------------------------------------------|
 I've got my moments , when I feel like.

|--------------------------------------------------|
|--------------------------------------------------|
|4~~~~~~~~~~~~~~~~~~~~~~~~~~~~~~~~~~~~~~~~~~/9~\4~~|
|--------------------------------------------------|
|--------------------------------------------------|
|--------------------------------------------------|
I should be doing something else, yeah.

now a second guitar start playing the 2nd intro part
|--------------------------------------------------|
|--------------------------------------------------|
|4~~~~~~~~~~~~~~~~~~~~~~~~~~~~~~~~~~~~~~~~~~/9~\4~~|
|--------------------------------------------------|
|--------------------------------------------------|
|--------------------------------------------------|
The voice consulence says it ain't right.

|--------------------------------------------------|
|--------------------------------------------------|
|4~~~~~~~~~~~~~~~~~~~~~~~~~~~~~~~~~~~~~~~~~~~~~~~~~|
|--------------------------------------------------|
|--------------------------------------------------|
|--------------------------------------------------|
With pleasure I would deal with somebody else.


Chorus :
                        1x             4x
|-------------------------|-------------|
|-------------------------|-------------|
|-------------------------|-------------|
|-------------------------|-2-----------|
|-------------------------|-------0-----|
|-------------------------|---0-3---0---|
I've got my wicked moments.

                        1x             4x
|-------------------------|-------------|
|-------------------------|-------------|
|-------------------------|-------------|
|-------------------------|-2-----------|
|-------------------------|-------0-----|
|-------------------------|---0-3---0---|
I've got my wicked moments.


Verse 2
|-------------|4x
|-------------|
|-x9-8/9xxxxx-|
|-x9-8/9xxxxx-|
|----6/7------|
|-------------|

|--------------------------------------------------|
|--------------------------------------------------|
|4~~~~~~~~~~~~~~~~~~~~~~~~~~~~~~~~~~~~~~~~~~/9~\4~~|
|--------------------------------------------------|
|--------------------------------------------------|
|--------------------------------------------------|
I play wicked games. I like wicked things like...

|--------------------------------------------------|
|--------------------------------------------------|
|4~~~~~~~~~~~~~~~~~~~~~~~~~~~~~~~~~~~~~~~~~~/9~\4~~|
|--------------------------------------------------|
|--------------------------------------------------|
|--------------------------------------------------|
I'm not the only one, who thinks, that it's funny, yeah.


now a second guitar start playing the 2nd intro part
|--------------------------------------------------|
|--------------------------------------------------|
|4~~~~~~~~~~~~~~~~~~~~~~~~~~~~~~~~~~~~~~~~~~/9~\4~~|
|--------------------------------------------------|
|--------------------------------------------------|
|--------------------------------------------------|
To have my moments, when I feel like..

|--------------------------------------------------|
|--------------------------------------------------|
|4~~~~~~~~~~~~~~~~~~~~~~~~~~~~~~~~~~~~~~~~~~~~~~~~~|
|--------------------------------------------------|
|--------------------------------------------------|
|--------------------------------------------------|
I steel sunglasses, if the weather is sunny.

Chorus (same like first Chorus)

Solo

|------------------|2x
|------------------|
|------------------|
|----------4-3-----|
|--------4-----4---|
|-0----4---------4-|

|----------------------|7x
|----------------------|
|----------------------|
|--------------4-3-----|
|--2---------4-----4---|
|----4-0---4---------4-|
on the seventh time , a second guitar start playing the 2nd intro part


Chorus , as much as needed

|-------------------------|-------------|
|-------------------------|-------------|
|-------------------------|-------------|
|-------------------------|-2-----------|
|-------------------------|-------0-----|
|-------------------------|---0-3---0---|
I've got my wicked moments.




Enjoy and please rate , questions or corrections to schattenkrieger2005@hotmail.de
Tap to rate this tab
# A B C D E F G H I J K L M N O P Q R S T U V W X Y Z