Song name
# A B C D E F G H I J K L M N O P Q R S T U V W X Y Z

Rasmus - Well Well tab

Artist : The Rasmus
Song : Well well
Album : Playboys
Tab by: Beberasmus bebe_4048@hotmail.com

Funny album!

Intro:
E|-----------------------------------|
B|-----------------------------------|
G|-------------------5/7-7-7-7-7-7-7-|
D|-2-4---2-4---2-4---5/7-7-7-7-7-7-7-|x2
A|-2-4---2-4---2-4---3/5-5-5-5-5-5-5-|
E|-2-2---2-2---2-2-------------------|

Then:x2
E|-----------------------------------|   |---------------------|
B|----------------------8h10p8-7---7-|   |---------------------|
G|-------------------------------8---|   |-5/7-7-7-7-7-7-7-7-7-|
D|-2-4---2-4---2-4-------------------|x3 |-5/7-7-7-7-7-7-7-7-7-|
A|-2-4---2-4---2-4-------------------|   |-3/5-5-5-5-5-5-5-5-5-|
E|-2-2---2-2---2-2-------------------|   |---------------------|

Verse:
E|-----------------------------------|
B|-----------------------------------|
G|-------------------5/7-7-7-7-7-7-7-|
D|-2-4---2-4---2-4---5/7-7-7-7-7-7-7-|x2
A|-2-4---2-4---2-4---3/5-5-5-5-5-5-5-|
E|-2-2---2-2---2-2-------------------|

Chorus:
E|----------------------------------|
B|----------------------------------|
G|----------2-2-2-2--7-7-7-7--------|
D|-4-4-4-4--2-2-2-2--7-7-7-7--2-2-2-|x4
A|-4-4-4-4--0-0-0-0--5-5-5-5--2-2-2-|
E|-2-2-2-2--------------------0-0-0-|

E|--------------------|
B|--------------------|
G|------2-2--7-7------|
D|-5-5--2-2--7-7--4-4-|x3
A|-5-5--0-0--5-5--4-4-|
E|-3-3------------2-2-|

E|-------------------|
B|-------------------|
G|-------------------|
D|-5-5--4-4--7-7-7-7-|
A|-5-5--4-4--7-7-7-7-|
E|-3-3--2-2--5-5-5-5-|

Then:
E|-----------------------------------|   |---------------------|
B|----------------------8h10p8-7---7-|   |---------------------|
G|-------------------------------8---|   |-5/7-7-7-7-7-7-7-7-7-|
D|-2-4---2-4---2-4-------------------|x3 |-5/7-7-7-7-7-7-7-7-7-|
A|-2-4---2-4---2-4-------------------|   |-3/5-5-5-5-5-5-5-5-5-|
E|-2-2---2-2---2-2-------------------|   |---------------------|

Verse 2:
E|-----------------------------------|
B|-----------------------------------|
G|-------------------5/7-7-7-7-7-7-7-|
D|-2-4---2-4---2-4---5/7-7-7-7-7-7-7-|x2
A|-2-4---2-4---2-4---3/5-5-5-5-5-5-5-|
E|-2-2---2-2---2-2-------------------|

Chorus:
E|----------------------------------|
B|----------------------------------|
G|----------2-2-2-2--7-7-7-7--------|
D|-4-4-4-4--2-2-2-2--7-7-7-7--2-2-2-|x4
A|-4-4-4-4--0-0-0-0--5-5-5-5--2-2-2-|
E|-2-2-2-2--------------------0-0-0-|

E|--------------------|
B|--------------------|
G|------2-2--7-7------|
D|-5-5--2-2--7-7--4-4-|x3
A|-5-5--0-0--5-5--4-4-|
E|-3-3------------2-2-|

E|-------------------|
B|-------------------|
G|-------------------|
D|-5-5--4-4--7-7-7-7-|
A|-5-5--4-4--7-7-7-7-|
E|-3-3--2-2--5-5-5-5-|

Bridge:
E|-----------------------------------|
B|-----------------------------------|
G|-------------------5/7-7-7-7-7-7-7-|
D|-2-4---2-4---2-4---5/7-7-7-7-7-7-7-|x2
A|-2-4---2-4---2-4---3/5-5-5-5-5-5-5-|
E|-2-2---2-2---2-2-------------------|

Chorus:
E|----------------------------------|
B|----------------------------------|
G|----------2-2-2-2--7-7-7-7--------|
D|-4-4-4-4--2-2-2-2--7-7-7-7--2-2-2-|x4
A|-4-4-4-4--0-0-0-0--5-5-5-5--2-2-2-|
E|-2-2-2-2--------------------0-0-0-|

E|--------------------|
B|--------------------|
G|------2-2--7-7------|
D|-5-5--2-2--7-7--4-4-|x4
A|-5-5--0-0--5-5--4-4-|
E|-3-3------------2-2-|

E|-------------------|
B|-------------------|
G|-------------------|
D|-5-5--4-4--7-7-7-7-|
A|-5-5--4-4--7-7-7-7-|
E|-3-3--2-2--5-5-5-5-|

E|--------------------|
B|--------------------|
G|------2-2--7-7------|
D|-5-5--2-2--7-7--4-4-|x4
A|-5-5--0-0--5-5--4-4-|
E|-3-3------------2-2-|

End:
E|-------------------|
B|-------------------|
G|-------------------|
D|-5-5--4-4--7-7-7-7-|
A|-5-5--4-4--7-7-7-7-|
E|-3-3--2-2--5-5-5-5-|

E|-------------|
B|-------------|
G|-------------|
D|-5-5--4-4--7-|
A|-5-5--4-4--7-|
E|-3-3--2-2--5-|


Please reate!
PEACE!
Tap to rate this tab
# A B C D E F G H I J K L M N O P Q R S T U V W X Y Z