Song name
# A B C D E F G H I J K L M N O P Q R S T U V W X Y Z

Rasmus - No Fear Acoustic tab

band: the rasmus
song: no fear acoustic
tab added by metalEERO

rock_asedio_123@homail.com


intro

E|-1-1-1-2-2-2-3-4-4-3-3-3-----|
B|--2-2-2-2-2-2-2-2-2-2-2-2----|
G|---3-3---3-3---3-3---3-3-----|  x 2 
D|-----------------------------|
A|-----------------------------|
E|-----------------------------|

 
E|---------------------------|
B|---------------------------|
G|---------------------------|
D|----666666666666-----------|
A|----666666666666-----------|
E|----444444444444-----------|
this is several times along 
with the second time of the intro

                                           PREVERSE¬
E|---------------------------------|     |------------|
B|---------------------------------|     |------------|
G|------------------44-44-4--------|     |------------|
D|6-66-66-6-22-22-2-44-44-4-44-44--| X 2 |--2~--------|
A|6-66-66-6-22-22-2-22-22-2-44-44--|     |--2~--------|
E|4-44-44-4-00-00-0---------22-22--|     |--0~-757-7--|


VERSE
                                      THIS IS THE END OF SECOND TIME¬
E|----------------------------------------------------------------|----|
B|----------------------------------------------------------------|----|
G|-----------8888888-89999999-94444444-46666666-68888888----------|-4~~|
D|-66666666-68888888-89999999-94444444-46666666-68888888-97-------|-4~~|
A|-66666666-66666666-67777777-72222222-24444444-46666666---9-9/10-|-2~~|
E|-44444444-4-----------------------------------------------------|----|


PRECHORUS

E|------|
B|------|
G|------|
D|-979--|
A|-979--|
E|-757--|

CHORUS                                       PREVERSE¬
E|---------------------------------|     |------------|
B|---------------------------------|     |------------|
G|------------------44-44-4--------|     |------------|
D|6-66-66-6-22-22-2-44-44-4-44-44--| X 2 |--2~--------|
A|6-66-66-6-22-22-2-22-22-2-44-44--|     |--2~--------|
E|4-44-44-4-00-00-0---------22-22--|     |--0~-757-7--|



VERSE
                                      THIS IS THE END OF SECOND TIME¬
E|----------------------------------------------------------------|----|
B|----------------------------------------------------------------|----|
G|-----------8888888-89999999-94444444-46666666-68888888----------|-4~~|
D|-66666666-68888888-89999999-94444444-46666666-68888888-97-------|-4~~|
A|-66666666-66666666-67777777-72222222-24444444-46666666---9-9/10-|-2~~|
E|-44444444-4-----------------------------------------------------|----|

PRECHORUS

E|------|
B|------|
G|------|
D|-979--|
A|-979--|
E|-757--|



CHORUS                                    
E|---------------------------------|     
B|---------------------------------|     
G|------------------44-44-4--------|     
D|6-66-66-6-22-22-2-44-44-4-44-44~-| X 2 
A|6-66-66-6-22-22-2-22-22-2-44-44~-|     
E|4-44-44-4-00-00-0---------22-22~-| 
  

BRIDGE
E|-------------|
B|-------------|
G|-------44----|
D|-66-22-44-44-|
A|-66-22-22-44-|
E|-44-00----22-|


SOLO
E|----------------------------------------------789/3-789/2-789/1-234-2101-|
B|-------------------------------------------------------------------------|
G|-------------------------------------------------------------------------|
D|-777777777777777/99999/75355555-3455555-23422----------------------------|
A|-------------------------------------------------------------------------|
E|-------------------------------------------------------------------------|



CHORUS                                    
E|---------------------------------|     
B|---------------------------------|     
G|------------------44-44-4--------|     
D|6-66-66-6-22-22-2-44-44-4-44-44~-| X 4 
A|6-66-66-6-22-22-2-22-22-2-44-44~-|     
E|4-44-44-4-00-00-0---------22-22~-| 

END
E|------|
B|------|
G|------|
D|--2---|
A|--2---|
E|--0---|

            1000%%%%%%%%%  T H E R A S M U S 
PLEASE RATEˇˇˇˇˇˇˇˇˇˇˇˇˇˇˇˇ
Tap to rate this tab
# A B C D E F G H I J K L M N O P Q R S T U V W X Y Z