Song name
# A B C D E F G H I J K L M N O P Q R S T U V W X Y Z

Rasputina - Howard Hughes tab

#----------------------------------PLEASE NOTE---------------------------------#
#This file is the author's own work and represents their interpretation of the #
#song. You may only use this file for private study, scholarship, or research. #
#------------------------------------------------------------------------------##

Song: Howard Hughes (solo)
Artist: Rasputina

This song, as all of Rasputina's songs, is originally for cello. I might try to transcribe the whole 
song to guitar, but I don't really have that much free time. I'm sorry for the slight sloppiness, but 
this is my first tab and I couldn't really figure out how to get it perfect. I'm pretty sure it's 99% 
accurate (there's another part at the end that I couldn't quite get). If you have the song, it's not
too hard to figure out how long to hold out each note. Good luck, and remember: don't breathe
air. Breath Rasputina. <33


|--------------------------------------------------------------------|
|-8--5--3--1--0--1--0-----------8--5--3--1--0--1--0----1--0----------|
|----------------------2--0--2----------------------2-------2-0-2----|
|--------------------------------------------------------------------|
|--------------------------------------------------------------------|
|--------------------------------------------------------------------|


|-----------------------------------------------------------------------------------------------|
|-3--5--3--6--5--3--3--5--3--6--5--3--10-------10-------3--5--3--6--5--3--3--5--3--6--5--3------|
|-----------------------------------------9--9-----5--5-----------------------------------------|
|-----------------------------------------------------------------------------------------------|
|-----------------------------------------------------------------------------------------------|
|-----------------------------------------------------------------------------------------------|


www.rasputina.com


***************************************************************************************
* Generated using Power Tab Editor by Brad Larsen - http://powertab.guitarnetwork.org *
***************************************************************************************
Tap to rate this tab
# A B C D E F G H I J K L M N O P Q R S T U V W X Y Z