Song name
# A B C D E F G H I J K L M N O P Q R S T U V W X Y Z

Rata Blanca - Ella tab

NTRO         1                                 2
e||--------------------|------------3-----------||
B||--------1---1-------|--------------3---------||
G||------0-------0-----|---------0------0-------||    x4
D||----1-----------1---|-------0----------0-----||
A||--3-----------------|-----2------------------||
E||--3-----------------|---3--------------------||

PUNTEO SOBRE INTRO
|----------------------------------------------15-||
|-15(16)15--13------------15(16)15--13------------||
|---------------14(16)-12---------------14(16)----||
|-------------------------------------------------||
|-------------------------------------------------||
|-------------------------------------------------||


(sobre intro)
Cierra tus ojos, voy a contarte
Algo que nunca te dije antes.


Dm            Am           Dm
     Ella atrap mi corazn
                    F          Fm              C       -do-si-la-
     Ella es la dulce miel que me hizo
G                 C     -do-si-la-  G              Am  -si-do-
     Sentir distinto                  a los dems

Em                D           (sobre INTRO)
    Algo cambi      cuando estuve a su lado.


PUNTEO  sobre  INTRO

Hoy no recuerdo como poda
Sin conocerla pasar mi vida.

     Ya no me alcanza la razn
     Ya no me importa el mundo sin ella
     Ella es el sueo de un perdedor
     Que la encontr     y ahora puede existir

Em / C / D / Am

Y voy a existir
Y podr existir, por ella...


SOLO:
    Gm                     Dm                    Gm                            Dm
e|-------------------------------------------------------|
B|---18(20)18-15-18---------------18(20)18-15-18---------|
G|-------------------17(19)17---------------------17(19)-|
D|-------------------------------------------------------|
A|-------------------------------------------------------|
E|-------------------------------------------------------|

Gm                            Dm                           F                         C   
Cm
----------------------------------------------------|
----18(20)18-15-18----------------------------------|
---------------------17(19)17--15-14---14-15-14-----|
------------------------------------------------17--|
----------------------------------------------------|
----------------------------------------------------|

   Gm                       Dm                   Gm                              Dm
e|-------------------------------------------------------|
B|--18(20)18-15-18----------------18(20)18-15-18---------|
G|------------------17(19)17----------------------17(19)-|
D|-------------------------------------------------------|
A|-------------------------------------------------------|
E|-------------------------------------------------------|

 Gm                            Dm                          F                            
  Cm
-----------------------------------------------------|
-----18(20)18-15-18------------------15(16)15--------|
---------------------17(19)17--15-14----------17-15~-|
-----------------------------------------------------|
-----------------------------------------------------|
-----------------------------------------------------|

Dm             Am             Dm
     Solo podemos caminar
                      F       Fm           C
     Bajo el caliente sol del destino
G                    C      G                 Am
     Ella es el cielo,     ella es el mar

Em           D    (sobre INTRO 1)    G
     Ella le da    el sentido a mi vida

 Em        G        Em         G - (Arpegiado)
     a mi vida...      a mi vida.
Tap to rate this tab
# A B C D E F G H I J K L M N O P Q R S T U V W X Y Z