Song name
# A B C D E F G H I J K L M N O P Q R S T U V W X Y Z

Rata Blanca - Madre Tierra tab

                              Rata Blanca-2008
Placa: Reino Olvidado

Tema: Madre Tierra

Bueno acá les dejo el intro de la cancion “Madre Tierra” de rata del nuevo disco 
falla por favor mi mail es fergar14@hotmail.com

e ----------------------------------------------------------------------------|
B -------------4~-5b--2~--------4b-4-2----------------------------------------|
G -----------------------4-3-0---------4-3-1----4----6b8p6—3---------------1~-|
D ---4~--6~-------------------------------------------------------------0--1~-|
A ---4~--6~-----------------------------------------------------4-2-1---0-----|
E ---2~--4~-----------------------------------------------------------3-------|


e -----------------9---11~--12~--9~---------12-11-9-----------------------|
B ---------9-11-12------------------12-11-8---------12-11-9-12~-13b15p11--|
G -9-11-12----------------------------------------------------------------|
D ------------------------------------------------------------------------|
A ------------------------------------------------------------------------|
E ------------------------------------------------------------------------|

e --------------------|
B --------------------|
G -13-12-10---6--8~---|
D ------------6--8~---|
A --------------------|
E --------------------|
Tap to rate this tab
# A B C D E F G H I J K L M N O P Q R S T U V W X Y Z