Song name
# A B C D E F G H I J K L M N O P Q R S T U V W X Y Z

Rata Blanca - Volviendo A Casa tab

#----------------------------------PLEASE NOTE---------------------------------#
#This file is the author's own work and represents their interpretation of the #
#song. You may only use this file for private study, scholarship, or research. #
#------------------------------------------------------------------------------#

VOLVIENDO A CASA
As recorded by Rata Blanca
(From the 2002 Album EL CAMINO DEL FUEGO)

Transcribed by Rogelio Dionicio (Red Moon)
	

Words by Walter Giardino Music by Rata Blanca
Arranged by Rata Blanca

F5
1 3 3 x x x
	
G5
3 5 5 x x x
	
A5
5 7 7 x x x
	
B5
x 2 4 4 x x

C5
x 3 5 5 x x
	
D5
x 5 7 7 x x
	
Am/maj7
x x 6 5 x x
	
Am
x x 7 5 x x

Am7
x x 5 5 x x
	
Gmaj7sus4
x x 4 5 x x
	
G#5
4 6 6 x x x
	
Bb5
6 8 8 x x x

E5
x 7 9 9 x x

Gtr I (E A D G B E) - 'Guitar 1 - Walter Giardino'
Gtr II (E A D G B E) - 'Guitar 2 - Walter Giardino'

 Intro
  Moderate Rock Q=125
       F5   G5 A5                       G5                    F5
 4/4
  Gtr II
  Q  E E +E q  E   +Q   Q   H                W
       |  | |  |    |
       /  / /  /    /

  Gtr I
  W                 Q   q   E   E    E  E   +Q   q  E  E   E  E
|----------------|------------------------|---------------------|
|----------------|------------------------|---------------------|
|----------------|------9---9h=10p===9--7-|-(7)--7--7h=9p==7--5-|
|----------------|-----10--10-(10)-(10)-9-|-(9)--9--9-(9)-(9)-7-|
|----------------|------------------------|---------------------|
|----------------|------------------------|---------------------|


                    G5
   W                     W
                            PM--|       ~
  +Q   q  E  E   E  E   +E  E E E E E E E
|---------------------|---------------------|
|---------------------|---------------------|
|-(5)--5--5h=7p==5--4-|-(4)---4---7-5-4-----|
|-(7)--7--7-(7)-(7)-5-|-(5)-5---5-------7---|
|---------------------|---------------------|
|---------------------|---------------------|


  A5                    G5                    F5
   W                         W
   ~~~
  +Q    q   E   E    E  E   +Q   q  E  E   E  E
|-------------------------|---------------------|
|-------------------------|---------------------|
|-------9---9h=10p===9--7-|-(7)--7--7h=9p==7--5-|
|-(7)--10--10-(10)-(10)-9-|-(9)--9--9-(9)-(9)-7-|
|-------------------------|---------------------|
|-------------------------|---------------------|


                    A5        B5   C5   D5   A5
   H      Q      E   E    +E  E +E E +E E +E E
                     |     |  |  | |  | |  | |
                     /     /  /  / /  / /  / /

                     ~~~~~~~~~
  +Q   q  E  E   E   E    +Q     Q    Q    E E
|-----------------------|----------------------||
|-----------------------|----------------------||
|-(5)--5--5h=7p==5------|--------------------5-||
|-(7)--7--7-(7)-(7)-[5]-|-(5)----------------7-||
|-----------------------|----------------------||
|-----------------------|----------------------||


 Verse
      Am           Am/maj7           Am7               Gmaj7sus4         F5
  +E  +E Q   H         W                 W                 W
   |   |
   /   /

   PM--------------------------------------------------------------------|
  +E   E E E E E E E   E E E E E E E E   E E E E E E E E   E E E E E E E E
|--------------------|-----------------|-----------------|-----------------|
|--------------------|-----------------|-----------------|-----------------|
|-(5)--5-5-5-5-5-5-5-|-5-5-5-5-5-5-5-5-|-5-5-5-5-5-5-5-5-|-5-5-5-5-5-5-5-5-|
|-(7)--7-7-7-7-7-7-6-|-6-6-6-6-6-6-6-5-|-5-5-5-5-5-5-5-4-|-4-4-4-4-4-4-4-3-|
|--------------------|-----------------|-----------------|-----------------|
|--------------------|-----------------|-----------------|-----------------|


                C/E     E5        D5                              Bb5   Am
  PM------------------------------------------------------------|
  E E E E E E E E   E E E E E E E E   E E E E E E E E   E E E E E e +e  E
|-----------------|-----------------|-----------------|-------------------|
|-----------------|-----------------|-----------------|-------------------|
|-5-5-5-5-5-5-5-5-|-5-5-4-4-4-4-4-2-|-2-2-2-2-2-2-2-2-|-2-2-2-2-2-3-(3)-5-|
|-3-3-3-3-3-3-3-2-|-2-2-2-2-2-2-2-0-|-0-0-0-0-0-0-0-0-|-0-0-0-0-0-3-(3)-7-|
|-----------------|-----------------|-----------------|-----------1-(1)-0-|
|-----------------|-----------------|-----------------|-------------------|


  Am             G#/A                C5/A
       PM----|           PM------|
  +Q   E E E E E E   +E  E E E E E E E
|------------------|-------------------|
|------------------|-------------------|
|-(5)----------5-5-|-(5)-----------5-5-|
|-(7)----------7-6-|-(6)-----------6-5-|
|-(0)--0-0-0-0-0-0-|-(0)-0-0-0-0-0-0-0-|
|------------------|-------------------|


                  Am6         Am6
      PM------|           PM|       PM--|
  +E  E E E E E E E   +E  E E E +E  E E E
|-------------------|---------------------|
|-------------------|---------------------|
|-(5)-----------5-5-|-(5)-----5-(5)-------|
|-(5)-----------5-4-|-(4)-----4-(4)-------|
|-(0)-0-0-0-0-0-0-0-|-(0)-0-0-0-(0)-0-0-0-|
|-------------------|---------------------|


  F/A            E5      D5    C5    B5    F5
     PM--|               ~~~~~~~~~~~~~~~~~~
  Q  E E E E +E  E   +E  E +E  E +E  E +E  E
|------------------|-------------------------|
|------------------|-------------------------|
|-5--------5-(5)---|-------------------------|
|-3--------3-(3)-2-|-(2)-0-(0)-------------3-|
|-0--0-0-0-0-(0)---|-----------3-(3)-2-(2)-3-|
|------------------|-----------------------1-|


                   Bridge
               D5                     C5
                        PM| ~~~~~~PM|
  +H.      +E  E    +E  E E E +E  E E E
|----------------||---------------------|
|----------------||---------------------|
|--------------7-||-(7)---------------5-|
|-(3)------(3)-7-||-(7)---------------5-|
|-(3)------(3)-5-||-(5)-0-3-5-(5)-0-3-3-|
|-(1)------(1)---||---------------------|


  C5
  +H     +E  E +E  e   +E  E +E  E +E  E +Q
|--------------------|------------------------|
|------------5-(5)-6-|-(6)-5-(5)-3-(3)-5-(5)--|
|-(5)----(5)-5-(5)-5-|-(5)-5-(5)-5-(5)-5-(5)--|
|-(5)----(5)---------|------------------------|
|-(3)----(3)---------|------------------------|
|--------------------|------------------------|


  D5                                 E5
           PM| ~~~~~~~~PM| ~~~~~~PM|
  H    +E  E E E   +E  E E E +E  E E E
|----------------|---------------------|
|----------------|---------------------|
|-7----(7)-------|---------------------|
|-7----(7)-------|-------------------2-|
|-5----(5)-0-3-5-|-(5)-0-3-5-(5)-0-3-2-|
|----------------|-------------------0-|


               Pre-Chorus
  E5            G      F      C5       G5
  +W            q  +E  E +Q   q    +E  E +Q   +H
|------------||------------------|-------------------|
|------------||------------------|-------------------|
|------------||-4--(4)-2-(2)--5--|-(5)---------------|
|-(2)--------||-5--(5)-3-(3)--5--|-(5)-5-(5)--(5)----|
|-(2)--------||------------------|-----5-(5)--(5)----|
|-(0)--------||------------------|-------------------|


  G      F      C5       G5
  Q  +E  E +Q   q    +E  E +Q   +H
|------------------|-------------------||
|------------------|-------------------||
|-4--(4)-2-(2)--5--|-(5)---------------||
|-5--(5)-3-(3)--5--|-(5)-5-(5)--(5)----||
|------------------|-----5-(5)--(5)----||
|------------------|-------------------||


   Chorus
    C5         B5A5               E5         F#G5
             PM|                           PM|
    H    +E  E E E   +W           H    +E  E E E   +W
||-----------------|------------|----------------|--------|
||o----------------|------------|----------------|--------|
||--5----(5)-x-x-2-|-(2)--------|----------------|--------|
||--5----(5)-x-x-2-|-(2)--------|-2----(2)-x-x-5-|-(5)----|
||o-3----(3)-x-x-0-|-(0)--------|-2----(2)-x-x-5-|-(5)----|
||-----------------|------------|-0----(0)-x-x-3-|-(3)----|


  1.
  D5       C5    Bb5            A5    G5
  H    +E  e +E  E   +H     +E  E +E  E
|------------------|--------------------|
|------------------|--------------------|
|-7----(7)-5-(5)-3-|-(3)----(3)-2-(2)---|
|-7----(7)-5-(5)-3-|-(3)----(3)-2-(2)-5-|
|-5----(5)-3-(3)-1-|-(1)----(1)-0-(0)-5-|
|------------------|------------------3-|


      PM----|         ~~~~~~~~PM----|       PM|
              |-3-|                   |-3-|
  +E  E E E E S S S E E   +E  E E E E S S S E E
|-----------------------|------------------------||
|-----------------------|-----------------------o||
|-----------------------|------------------------||
|-(5)---5---3-2h3p2-----|-------5---3-2h3p2------||
|-(5)---------------5---|-------------------5-2-o||
|-(3)-3---3-----------3-|-(3)-3---3--------------||


  2.
  D5       C5    Bb5            A5    G5
  H    +E  e +E  E   +H     +E  E +E  E
|------------------|--------------------|
|------------------|--------------------|
|-7----(7)-5-(5)-3-|-(3)----(3)-2-(2)---|
|-7----(7)-5-(5)-3-|-(3)----(3)-2-(2)-5-|
|-5----(5)-3-(3)-1-|-(1)----(1)-0-(0)-5-|
|------------------|------------------3-|


                                    F5    G5    A5
      PM----|         PM--------|
              |-3-|
  +E  E E E E S S S E E   +E  E  E  E +E  e +e  E
|-----------------------|---------------------------||
|-----------------------|---------------------------||
|-----------------------|---------------------------||
|-(5)---5---3-2h3p2-----|-----------3-(3)-5-(5)-7---||
|-(5)---------------5---|-----------3-(3)-5-(5)-7---||
|-(3)-3---3-----------3-|-(3)-3-12\-1-(1)-3-(3)-5---||


 Interlude
  A5                    G5                    F5
  +Q    q   E   E    E  E   +Q   q  E  E   E  E
|-------------------------|---------------------|
|-------------------------|---------------------|
|-------9---9h=10p===9--7-|-(7)--7--7h=9p==7--5-|
|-(7)--10--10-(10)-(10)-9-|-(9)--9--9-(9)-(9)-7-|
|-(7)---------------------|---------------------|
|-(5)---------------------|---------------------|


                    G5
                            PM--|           ~
                                      |-3-|
  +Q   q  E  E   E  E   +E  E E E E E S S S E
|---------------------|-------------------------|
|---------------------|-------------------------|
|-(5)--5--5h=7p==5--4-|-(4)---4---7-5-4h5p4-----|
|-(7)--7--7-(7)-(7)-5-|-(5)-5---5-----------7---|
|---------------------|-------------------------|
|---------------------|-------------------------|


  A5                    G5                    F5
  Gtr II
   W                         W
  Gtr I
   ~~~
  +Q    q   E   E    E  E   +Q   q  E  E   E  E
|-------------------------|---------------------|
|-------------------------|---------------------|
|-------9---9h=10p===9--7-|-(7)--7--7h=9---7--5-|
|-(7)--10--10-(10)-(10)-9-|-(9)--9--9-(9)-(9)-7-|
|-------------------------|---------------------|
|-------------------------|---------------------|


                    A5      B5   C5   D5   A5
   H      Q      E  E   +E  E +E E +E E +E  E
                    |    |  |  | |  | |  |  |
                    /    /  /  / /  / /  /  /

                    ~~~~~~~~
  +Q   q  E  E   E  E   +Q     Q    Q    E  E
|---------------------|-----------------------||
|---------------------|-----------------------||
|-(5)--5--5h=7---5----|-----------------------||
|-(7)--7--7-(7)-(7)-7-|-(7)----------------/7-||
|---------------------|-----------------------||
|---------------------|-----------------------||


 2nd Verse
  +Q.   +E  H            W
   |     |
   /     /

   ~~~              ~~~~~~~~
  +H       +E  E E  E   +H     +E   E +E   E
|---------------------|----------------------|
|---------------------|----------------------|
|--------------4h5-/7-|-(7)----(7)-/9-(9)-10-|
|-(7)------(7)--------|----------------------|
|---------------------|----------------------|
|---------------------|----------------------|


  W                    W
  ~~~~~~~~~
  H    +E  E  E  E    +Q.    E +E  E +Q
|------------------|----------------------|
|---------------13-|-(13)\----------------|
|-9----(9)-9-10----|---------5-(5)--------|
|------------------|---------------7-(7)--|
|------------------|----------------------|
|------------------|----------------------|


                                                                     Bb5   Am
                                                 <
                   ~~~~~~~~     ~~~~~~~~~~~~~~~~~~~~~~~~~~~~~~~~~~~~~
  +H     +E  E +E  E   +Q.   E +Q.   E   +H      H       +H      +E  e +e  E
|--------------------|-----------------|--------------|----------------------|
|--------------------|-----------------|--------10----|-(10)----(10)---------|
|------------5-(5)-7-|-(7)---4-(4)---5-|-(5)----------|--------------3-(3)-5-|
|-(7)----(7)---------|-----------------|--------------|--------------3-(3)-7-|
|--------------------|-----------------|--------------|--------------1-(1)-0-|
|--------------------|-----------------|--------------|----------------------|


  Am             G#/A                C5/A
       PM----|           PM------|
  +Q   E E E E E E   +E  E E E E E E E
|------------------|-------------------|
|------------------|-------------------|
|-(5)----------5-5-|-(5)-----------5-5-|
|-(7)----------7-6-|-(6)-----------6-5-|
|-(0)--0-0-0-0-0-0-|-(0)-0-0-0-0-0-0-0-|
|------------------|-------------------|


                  Am6         Am6
      PM------|           PM|       PM--|
  +E  E E E E E E E   +E  E E E +E  E E E
|-------------------|---------------------|
|-------------------|---------------------|
|-(5)-----------5-5-|-(5)-----5-(5)-------|
|-(5)-----------5-4-|-(4)-----4-(4)-------|
|-(0)-0-0-0-0-0-0-0-|-(0)-0-0-0-(0)-0-0-0-|
|-------------------|---------------------|


                                                                Bridge
  F/A            E5      D5    C5    B5    F5               D5               C5
     PM--|
  Q  E E E E +E  E   +E  E +E  E +E  E +E  E   +H.      +E  E    +Q   H    E E
|------------------|-------------------------|----------------||---------------|
|------------------|-------------------------|----------------||---------------|
|-5--------5-(5)-4-|-(4)-2-(2)---------------|--------------7-||-(7)---------5-|
|-3--------3-(3)-2-|-(2)-0-(0)-5-(5)-4-(4)-3-|-(3)------(3)-7-||-(7)---------5-|
|-0--0-0-0-0-(0)---|-----------3-(3)-2-(2)-3-|-(3)------(3)-5-||-(5)---------3-|
|------------------|-----------------------1-|-(1)------(1)---||---------------|


  C5
  +H     +E  E +E  e   +E  E +E  E +E  E +Q
|--------------------|------------------------|
|------------5-(5)-6-|-(6)-5-(5)-3-(3)-5-(5)--|
|-(5)----(5)-5-(5)-5-|-(5)-5-(5)-5-(5)-5-(5)--|
|-(5)----(5)---------|------------------------|
|-(3)----(3)---------|------------------------|
|--------------------|------------------------|


  D5                                 E5
           PM| ~~~~~~~~PM| ~~~~~~PM|
  H    +E  E E E   +E  E E E +E  E E E
|----------------|---------------------|
|----------------|---------------------|
|-7----(7)-------|---------------------|
|-7----(7)-------|-------------------2-|
|-5----(5)-0-3-5-|-(5)-0-3-5-(5)-0-3-2-|
|----------------|-------------------0-|


                  Pre-Chorus
  E5               G      F      C5       G5
  +H.      +Q      q  +E  E +Q   q    +E  E +Q   +H
|---------------||------------------|-------------------|
|---------------||------------------|-------------------|
|---------------||-4--(4)-2-(2)--5--|-(5)---------------|
|-(2)------(2)--||-5--(5)-3-(3)--5--|-(5)-5-(5)--(5)----|
|-(2)------(2)--||------------------|-----5-(5)--(5)----|
|-(0)------(0)--||------------------|-------------------|


  G      F      C5       G5
  Q  +E  E +Q   q    +E  E +Q   +H
|------------------|-------------------||
|------------------|-------------------||
|-4--(4)-2-(2)--5--|-(5)---------------||
|-5--(5)-3-(3)--5--|-(5)-5-(5)--(5)----||
|------------------|-----5-(5)--(5)----||
|------------------|-------------------||


   Chorus
    C5             BA5
             PM|
    H    +E  E E E     +E  E +E  E +E  E E E
||-------------------|-----------------0-----|
||o------------------|-----------1-(1)---1---|
||--5----(5)-x-x-2---|-(2)-2-(2)-----------2-|
||--5----(5)-x-x-2---|-(2)-------------------|
||o-3----(3)-x-x-0---|-(0)-------------------|
||-------------------|-----------------------|


  E5             FG5
           PM|
  H    +E  E E E     +E  E +E  E +E  E E E
|------------------|------------------------|
|------------------|-----------------3------|
|------------------|-----------4-(4)---4----|
|-2----(2)-x-x-5---|-(5)-5-(5)-----------5--|
|-2----(2)-x-x-5---|-(5)--------------------|
|-0----(0)-x-x-3---|-(3)--------------------|


  1.
  D5       C5    Bb5            A5    G5
  H    +E  e +E  E   +H     +E  E +E  E
|------------------|--------------------|
|------------------|--------------------|
|-7----(7)-5-(5)-3-|-(3)----(3)-2-(2)---|
|-7----(7)-5-(5)-3-|-(3)----(3)-2-(2)-5-|
|-5----(5)-3-(3)-1-|-(1)----(1)-0-(0)-5-|
|------------------|------------------3-|


      PM----|     ~~~~~~~~PM--|     PM|
  +E  E E E E E E E   +E  E E E E E E E
|-------------------|--------------------||
|-------------------|-------------------o||
|-------------------|--------------------||
|-(5)---5---3p2-----|-------5---3p2------||
|-(5)-----------5---|---------------5-2-o||
|-(3)-3---3-------3-|-(3)-3---3----------||


  2.
  DC5            Bb5            A5    G5
  Gtr II
  W                   W
  Gtr I
  H    +E  e +E  E   +H     +E  E +E  E
|------------------|--------------------|
|------------------|--------------------|
|-7----(7)-5-(5)-3-|-(3)----(3)-2-(2)---|
|-7----(7)-5-(5)-3-|-(3)----(3)-2-(2)-5-|
|-5----(5)-3-(3)-1-|-(1)----(1)-0-(0)-5-|
|------------------|------------------3-|


                               F5   GG5  Am
   W                   Q    E  E +E E +E   E
                               |  | |  |   |
                               /  / /  /   /

      PM----|     ~~~~~~~~PM|
  +E  E E E E E E E   +E  E E  E  Q    E   E
|-------------------|------------------------||
|-------------------|--------------------/10-||
|-------------------|------------------------||
|-(5)---5---3p2-----|------------------------||
|-(5)-----------5---|------------------------||
|-(3)-3---3-------3-|-(3)-3-x\---------------||


 Guitar Solo
  Am                            Am/maj7
  Gtr II
    PM----------------------------------------------
    E    E   E E  E   E   E E    E E E E   E E E E
|-----------------------------|--------------------|
|-----------------------------|--------------------|
|---5--------5----5---------5-|--5---5-----5-----5-|
|--------7-----7------7---7---|----6---6-----6-6---|
|-----------------------------|--------------------|
|-----------------------------|--------------------|
|
| Gtr I
|  +E   +E   q    E  +E   q      H         H
|-----------------------------|--------------------|
|-(10)-(10)s12---13-(13)s10---|-\9-------/12-------|
|-----------------------------|--------------------|
|-----------------------------|--------------------|
|-----------------------------|--------------------|
|-----------------------------|--------------------|


  Am7                Gmaj7sus4
 ------------------------------------|
   E E E E E E E E   E E  E  E E E E E
|------------------|-------------------|
|------------------|-------------------|
|--5---5---5---5---|-5----5----5---5---|
|----5---5---5---5-|---4-----4---4---4-|
|------------------|-------------------|
|------------------|-------------------|
|
|          ~              ~~~
|  H       H         E E +H.
|------------------|-------------------|
|-\8-------5-------|-5s7-(7)-----------|
|------------------|-------------------|
|------------------|-------------------|
|------------------|-------------------|
|------------------|-------------------|


  F5                       C/E   E5
   W                        W
   PM----------------------------------------------
   E  E E   E   E  E E E    E  E E   E   E  E E E
|------------------------|------------------------|
|------------------------|------------------------|
|--5----5-------5----5---|--5----4-------4----4---|
|-----3-----3------3---3-|-----2-----2------2---2-|
|------------------------|------------------------|
|------------------------|------------------------|
|
| Gtr I
|               ~~~                      ~~~
|  Q.      +E   Q.     E    Q.      +E   Q.     E
|--8-------(8)s12--------|--8-------(8)s12--------|
|-10------(10)s13--------|-10------(10)s13--------|
|------------------------|------------------------|
|------------------------|------------------------|
|------------------------|------------------------|
|------------------------|------------------------|


  D5                         D5          Bb5  Am
                           Gtr II
   W                          E  E E E E e +E E
                              |  | | | | |  | |
                              /  o / / / /  / /

 ------------------------|
   E  E   E  E E E   E   E    W
|--------------------------|--------------------|
|--------------------------|--------------------|
|--2------2----2-----2-----|--------------------|
|-----0------0---0-------0-|--------------------|
|--------------------------|--------------------|
|--------------------------|--------------------|
|
|     ~~~~~~~~~~~~~~~~~~~~~~~~~~~
|  E  E  +H         +Q        H.            E E
|-12s13-(13)-------(13)\---|--------------------|
|-13s15-(15)-------(15)\---|-13\----------------|
|--------------------------|-14\--------------5-|
|--------------------------|--------------------|
|--------------------------|--------------------|
|--------------------------|--------------------|


  Am                                Am/maj7
  +E     E   E  E E  E   E  E       E  E E E E E  E E
   |     |   |  | |  |   |  |       |  | | | | |  | |
   /     o   /  / /  /   /  /       /  o / / / /  / /

  Gtr I
                                    ~~         ~~
                            |-3-|
   E    +E  +E  E E +E  +E  S S S   Q.     E E Q.
|---------------------------------|-------------------|
|---------------------------------|-------------------|
|--7b9==(7)-(7)-7-7-(7)r(7)p5h7p5S|=4------5-5s7------|
|---------------------------------|-------------------|
|---------------------------------|-------------------|
|---------------------------------|-------------------|


  Am7                      Gmaj7sus4                     F5
   E E  E  E  E      E   E E       +E   E   E  E  E  E E   E
   | |  |  |  |      |   | |        |   |   |  |  |  | |   |
   / o  /  /  /      /   / /        /   o   /  /  /  / /   /

                                               ~~~~~~
   e e  e  e  E     +E   E E       +E  +E  +E  E +Q.       E
|--------------------------------|---------------------------|
|----8-10-12-12b13r(12)p10-9b10==|=(9)-(9)r(9)-----------/10-|
|-/9-----------------------------|-------------5-(5)---------|
|--------------------------------|---------------------------|
|--------------------------------|---------------------------|
|--------------------------------|---------------------------|


  F5                           E5        D5      C5      B5      A5
   +E  E E E   E    E     E     E    +E   E  +E   E  +E   E  +E   E
    |  | | |   |    |     |     |     |   |   |   |   |   |   |   |
    /  o / /   /    /     /     /     /   /   /   /   /   /   /   /

    ~~~~~~~~~~~~~~
   +H         +E    S  S  S  S  E    +E   E  +E   E  +E   E  +E   E
|---------------------17p15h17-15-|-(15)-13-(13)-12-(12)-10-(10)--8-|
|-(10)-------(10)-/12----------17-|-(17)-15-(15)-13-(13)-12-(12)-10-|
|---------------------------------|---------------------------------|
|---------------------------------|---------------------------------|
|---------------------------------|---------------------------------|
|---------------------------------|---------------------------------|


                             Bridge
       G5    F5    E5    D5                      C5
   +E  E +E  E +E  E +E  E    +H..               E
    |  |  |  |  |  |  |  |     |
    /  /  /  /  /  /  /  /     /

                         ~~~~~~~~~~PM| ~~~~~~PM|
   +E  E +E  E +E  E +E  E    +E   E E E +E  E E E
|--(8)-7-(7)-5-(5)-3-(3)---||----------------------|
|-(10)-8-(8)-6-(6)-5-(5)-6-||-(6)------------------|
|------------------------7-||-(7)----------------5-|
|--------------------------||--------------------5-|
|--------------------------||------0-3-5-(5)-0-3-3-|
|--------------------------||----------------------|


  C5
  +H     +E  E +E  e   +E  E +E  E +E  E +Q
|--------------------|------------------------|
|------------5-(5)-6-|-(6)-5-(5)-3-(3)-5-(5)--|
|-(5)----(5)-5-(5)-5-|-(5)-5-(5)-5-(5)-5-(5)--|
|-(5)----(5)---------|------------------------|
|-(3)----(3)---------|------------------------|
|--------------------|------------------------|


  D5                                 E5
           PM| ~~~~~~~~PM| ~~~~~~PM|
  H    +E  E E E   +E  E E E +E  E E E
|----------------|---------------------|
|----------------|---------------------|
|-7----(7)-------|---------------------|
|-7----(7)-------|-------------------2-|
|-5----(5)-0-3-5-|-(5)-0-3-5-(5)-0-3-2-|
|----------------|-------------------0-|


                  Pre-Chorus
  E5               G      F      C5       G5
  +H.      +Q      q  +E  E +Q   q    +E  E +Q   +H
|---------------||------------------|-------------------|
|---------------||------------------|-------------------|
|---------------||-4--(4)-2-(2)--5--|-(5)---------------|
|-(2)------(2)--||-5--(5)-3-(3)--5--|-(5)-5-(5)--(5)----|
|-(2)------(2)--||------------------|-----5-(5)--(5)----|
|-(0)------(0)--||------------------|-------------------|


  G      F      C5       G5
  Q  +E  E +Q   q    +E  E +Q   +H
|------------------|-------------------|
|------------------|-------------------|
|-4--(4)-2-(2)--5--|-(5)---------------|
|-5--(5)-3-(3)--5--|-(5)-5-(5)--(5)----|
|------------------|-----5-(5)--(5)----|
|------------------|-------------------|


  G      F      C5       G5
  Gtr II
  W                   W
  q  +E  E +Q   q    +E  E +Q   +H
|------------------|-------------------|
|------------------|-------------------|
|-4--(4)-2-(2)--5--|-(5)---------------|
|-5--(5)-3-(3)--5--|-(5)-5-(5)--(5)----|
|------------------|-----5-(5)--(5)----|
|------------------|-------------------|


  G5       C5       Bb5         G5
  Q.       Q.       Q       +E   H..
  |        |        |        |   |
  /        /        /        /   /

  ~~~~~~~~~~~~~~~~~~~~~~~
  Q    +E  E   +Q   Q       +E   E     E  E  E  E  E  E
|-------------------------|--------------15-------------|
|-3----(3)-5---(5)--6-----|-(6)-10----10----15----------|
|-5b7--(5)-7b9-(7)--8b10--|-(8)-12b14----------14p12----|
|-------------------------|--------------------------12-|
|-------------------------|-----------------------------|
|-------------------------|-----------------------------|


   Chorus
    C5             BA5
             PM|
    H    +E  E E E     +E  E +E  E +E  E E E
||-------------------|-----------------0-----|
||o------------------|-----------1-(1)---1---|
||--5----(5)-x-x-2---|-(2)-2-(2)-----------2-|
||--5----(5)-x-x-2---|-(2)-------------------|
||o-3----(3)-x-x-0---|-(0)-------------------|
||-------------------|-----------------------|


  E5             FG5
           PM|
  H    +E  E E E     +E  E +E  E +E  E E E
|------------------|------------------------|
|------------------|-----------------3------|
|------------------|-----------4-(4)---4----|
|-2----(2)-x-x-5---|-(5)-5-(5)-----------5--|
|-2----(2)-x-x-5---|-(5)--------------------|
|-0----(0)-x-x-3---|-(3)--------------------|


  1.,2.
  D5       C5    Bb5            A5    G5
  H    +E  e +E  E   +H     +E  E +E  E
|------------------|--------------------|
|------------------|--------------------|
|-7----(7)-5-(5)-3-|-(3)----(3)-2-(2)---|
|-7----(7)-5-(5)-3-|-(3)----(3)-2-(2)-5-|
|-5----(5)-3-(3)-1-|-(1)----(1)-0-(0)-5-|
|------------------|------------------3-|


      PM----|         ~~~~~~~~PM--|         PM|
              |-3-|                   |-3-|
  +E  E E E E S S S E E   +E  E E E E S S S E E  3x
|-----------------------|------------------------||
|-----------------------|-----------------------o||
|-----------------------|------------------------||
|-(5)---5---3-2h3p2-----|-------5---3-2h3p2------||
|-(5)---------------5---|-------------------5-2-o||
|-(3)-3---3-----------3-|-(3)-3---3--------------||


  3.
  D5       C5    Bb5            A5    G5
  H    +E  e +E  E   +H     +E  E +E  E
|------------------|--------------------|
|------------------|--------------------|
|-7----(7)-5-(5)-3-|-(3)----(3)-2-(2)---|
|-7----(7)-5-(5)-3-|-(3)----(3)-2-(2)-5-|
|-5----(5)-3-(3)-1-|-(1)----(1)-0-(0)-5-|
|------------------|------------------3-|


                                    F5    G5    A5
      PM--|           ~~~~~~~~PM|
              |-3-|
  +E  E E E E S S S E E   +E  E  E  E +E  e +e  E
|-----------------------|-------------------------||
|-----------------------|-------------------------||
|-----------------------|-------------------------||
|-(5)---5---3-2h3p2-----|-----------3-(3)-5-(5)-7-||
|-(5)---------------5---|-----------3-(3)-5-(5)-7-||
|-(3)-3---3-----------3-|-(3)-3-12\-1-(1)-3-(3)-5-||


 Outro
  A5                G5                 F5
  +Q    q   E   q   E   +Q   q  E  q   E
|---------------------|------------------|
|---------------------|------------------|
|-------9---9h=10---7-|-(7)--7--7h=9---5-|
|-(7)--10--10-(10)--9-|-(9)--9--9-(9)--7-|
|-(7)-----------------|------------------|
|-(5)-----------------|------------------|


                 G5
                         PM--|       ~
  +Q   q  E  q   E   +E  E E E E E E E
|------------------|-------------------|
|------------------|-------------------|
|-(5)--5--5h=7---4-|-(4)---4---7-5-4---|
|-(7)--7--7-(7)--5-|-(5)-5---5-------7-|
|------------------|-------------------|
|------------------|-------------------|


    A5                G5                 F5
     ~~~
    +Q    q   E   q   E   +Q   q  E  q   E
||----------------------|------------------|
||o---------------------|------------------|
||--------9---9h=10---7-|-(7)--7--7h=9---5-|
||--(7)--10--10-(10)--9-|-(9)--9--9-(9)--7-|
||o---------------------|------------------|
||----------------------|------------------|


                 G5
                         PM--|       ~
  +Q   q  E  q   E   +E  E E E E E E E
|------------------|---------------------||
|------------------|--------------------o||
|-(5)--5--5h=7---4-|-(4)---4---7-5-4-----||
|-(7)--7--7-(7)--5-|-(5)-5---5-------7---||
|------------------|--------------------o||
|------------------|---------------------||


  A5                G5                 F5
  Gtr II
   W                     W
   ~~~
  +Q    q   E   q   E   +Q   q  E  q   E
|---------------------|------------------|
|---------------------|------------------|
|-------9---9h=10---7-|-(7)--7--7h=9---5-|
|-(7)--10--10-(10)--9-|-(9)--9--9-(9)--7-|
|---------------------|------------------|
|---------------------|------------------|


                  G5      F5    E5    D5    C5
   H      Q     E E   +E  E +E  E +E  E +E  E
                  |    |  |  |  |  |  |  |  |
                  /    /  /  /  /  /  /  /  /

                  ~~~~~~~~~~~~~~~~~~~~~~~~~~
  +Q   q  E  q    E   +E  E +E  E +E  E +E  E
|-------------------|-------------------------||
|-------------------|-------------------------||
|-(5)--5--5h=7------|-------------------------||
|-(7)--7--7-(7)---5-|-(5)-3-(3)-2-(2)---------||
|-------------------|-----------------5-(5)-3-||
|-------------------|-------------------------||


      B5    A5    G5        C5A5    A5        G5A5
  +E  E +E  E +E  E  +E E   E e +E  e +E  +E  E E   +H         H
   |  |  |  |  |  |   | |   | |  |  |  |   |  | |    |
   /  /  /  /  /  /   / /   / /  /  /  /   /  / /    /

  +E  E +E  E +E  Q.        E e +E  e +E  +E  E E   +Q   +Q    H
|-------------------------|-----------------------|-----------------*|
|-------------------------|-----------------------|-----------------*|
|-------------------------|-5-2-(2)-2-(2)-(2)-----|-----------------*|
|-------------------------|-5-2-(2)-2-(2)-(2)-5-7-|-(7)--(7)\-------*|
|-(3)-2-(2)---------------|-3-0-(0)-0-(0)-(0)-5-7-|-(7)--(7)\-------*|
|-----------5-(5)-3-------|-------------------3-5-|-(5)--(5)\-------*|



Duration Legend
---------------
W - whole; H - half; Q - quarter; E - 8th; S - 16th; T - 32nd; X - 64th; a - acciaccatura
+ - note tied to previous; . - note dotted; .. - note double dotted
Uncapitalized letters represent notes that are staccato (1/2 duration)
Irregular groupings are notated above the duration line
Duration letters will always appear directly above the note/fret number it represents the
duration for.  Duration letters with no fret number below them represent rests.  Multi-
bar rests are notated in the form Wxn, where n is the number of bars to rest for.  Low
melody durations appear below the staff

Tablature Legend
----------------
 h   - hammer-on
 p   - pull-off
 b   - bend
 pb  - pre-bend
 r   - bend release (if no number after the r, then release immediately)
 /\  - slide into or out of (from/to "nowhere")
 s   - legato slide
 S   - shift slide
 - natural harmonic
[n]  - artificial harmonic
n(n) - tapped harmonic
 ~   - vibrato
 tr  - trill
 T   - tap
 TP  - trem. picking
 PM  - palm muting
\n/  - tremolo bar dip; n = amount to dip
 \n  - tremolo bar down
 n/  - tremolo bar up
/n\  - tremolo bar inverted dip
 =   - hold bend; also acts as connecting device for hammers/pulls
 <> - volume swell (louder/softer)
 x   - on rhythm slash represents muted slash
 o   - on rhythm slash represents single note slash

Misc Legend
-----------
 |  - bar
||  - double bar
||o - repeat start
o|| - repeat end
*|  - double bar (ending)
 :  - bar (freetime)
 $  - Segno
 &  - Coda
Tempo markers -  = BPM(8/16=s8/s16), where s8 = swing 8ths, s16 = swing 16ths

Tap to rate this tab
# A B C D E F G H I J K L M N O P Q R S T U V W X Y Z