Song name
# A B C D E F G H I J K L M N O P Q R S T U V W X Y Z

Rata Blanca - Aun Estas En Mis Sueos tab

Help us improve GuitareTab! Take a short survey!
|----------------------------------------------------------------|
|-7b9-7-5-5------------------------------------------------------|
|-----------6b8r6-4-4-6-8-6h8p6p4h6-3-4p3p1-----???--------------|
|------------------------------------------4p2-------------------|
|---------------------------------------------5p4p2--------------|
|--------------------------------------------------0-------------|

|----------------------------------------------------------------|
|------------------------4-7h4-6h4---7h4-7h4---------------------|
|-3h4-3-1-1--3h4-3-1-6b8-----------6-----------??????------------|
|----------------------------------------------------------------|
|----------------------------------------------------5-----------|
|----------------------------------------------------------------|


|-12-14b16-14b16-12-11-12~-11-12-12h14-12h14--11-12-12h14-12h14-|
|---------------------------------------------------------------|
|---------------------------------------------------------------|
|---------------------------------------------------------------|
|---------------------------------------------------------------|
|---------------------------------------------------------------|

|-12-------12p9-------------------------------------------------|
|----12b14-----12-----------------------------------------------|
|----------------12b14-----------9------------------------------|
|--------------------------------9------------------------------|
|---------------------------------------------------------------|
|---------------------------------------------------------------|

|---------------------------------------------------------------|
|-7h9-7-5-7h9-7-5/11-13-13h15p13h15p13-11-9-7-5--/8-/4-/2-------|
|---------------------------------------------------------------|
|---------------------------------------------------------------|
|---------------------------------------------------------------|
|---------------------------------------------------------------|

ScHiScO
Related for Aun Estas En Mis Sueos tab