Song name
# A B C D E F G H I J K L M N O P Q R S T U V W X Y Z

Rata Blanca - La Caja tab

INTRO
e|-------------------------------------------------------------------|
B|-------------------------------------------------------------------|
G|-------------------------------------------------------------------|
D|-0-0-1-3-0-0-1-3-0-0-1-1---------0-0-0-1-3-0-0-1-3-0-0-1-3---------|
A|-0-0-1-3-0-0-1-3-0-0-1-3--1^0^3--0-0-0-1-3-0-0-1-3-0-0-1-3--1^0^3h-|
D|-0-0-1-3-0-0-1-3-0-0-1-3---------0-0-0-1-3-0-0-1-3-0-0-1-3---------|
PM .......................         ...........................


e|-------------------------------------------------------------------|
B|-------------------------------------------------------------------|
G|-------------------------------------------------------------------|
D|-0-0-1-3-0-0-1-3-0-0-1-1---------0-0-0-1-3-0-0-1-3-0-0-1-3---------|
A|-0-0-1-3-0-0-1-3-0-0-1-3--1^0^3--0-0-0-1-3-0-0-1-3-0-0-1-3--1^0^3h-|
D|-0-0-1-3-0-0-1-3-0-0-1-3---------0-0-0-1-3-0-0-1-3-0-0-1-3---------|
PM .......................         .........................

VERSO
' Rie     la     ley,                demente     y    senil
e|-------------------------------------------------------------------|
B|-------------------------------------------------------------------|
G|-------------------------------------------------------------------|
D|-------------------------------------------------------------------|
A|--------------------------1^0^3-----------------------------1^0^3h-|
D|-0-0-1-3-0-0-1-3-0-0-1-3---------0-0-0-1-3-0-0-1-3-0-0-1-3---------|
PM .......................  .....  .........................  .....

   a c a r i c i a n d o     a     la       m u e r t e...'
e|-------------------------------------------------------------------|
B|-------------------------------------------------------------------|
G|-------------------------------------------------------------------|
D|-------------------------------------------------------------------|
A|--------------------------1^0^3-----------------------------1^0^3h-|
D|-0-0-1-3-0-0-1-3-0-0-1-3---------0-0-0-1-3-0-0-1-3-0-0-1-3---------|
PM .......................  .....  .........................  .....


CORO
(Guitarra 1)
'Solo estoy sin vos...'
e|------------------------------------------------------|
B|-15~-13~-15~---15~-13~-15~---15~-13~-15~-13~-10-13----|
G|------------------------------------------------------|   X 2
D|------------------------------------------------------|
A|------------------------------------------------------|
D|------------------------------------------------------|

(guitarra 2)
e|------------------------------------------------------|
B|------------------------------------------------------|
G|-14~-12~-14~--14~-12~-14~--14~-12~-14~-12~-9-12-------|   X 2
D|------------------------------------------------------|
A|------------------------------------------------------|
D|------------------------------------------------------|
Tap to rate this tab
# A B C D E F G H I J K L M N O P Q R S T U V W X Y Z