Song name
# A B C D E F G H I J K L M N O P Q R S T U V W X Y Z

Ratatat - Montanita tab

Ratatat - Montanita
From 1:35 into the song to 3:20

Round 1:

E-------8-----8-----8-----8-----6----6----6----6----6----1|
B----10----10----10----10----8----8----8----8----8----3---|
G--10---10----10----10----8----7----7----7----7----3------|
D---------------------------------------------------------|
A---------------------------------------------------------|
E---------------------------------------------------------|

E------6----6----6----6----1----3----3----3----3----3/6---|
B----8----8----8----8----3----4----4----4----4----4/8-----|
G--8----8----8----8----3----5----5----5----5----5/8-------|
D---------------------------------------------------------|
A---------------------------------------------------------|
E---------------------------------------------------------|

X2


Round 2:

E-------8-----8-----8-----8-----6----6----6----6----6----1|
B----10----10----10----10----8----8----8----8----8----3---|
G--10---10----10----10----8----7----7----7----7----3------|
D---------------------------------------------------------|
A---------------------------------------------------------|
E---------------------------------------------------------|

E------11----11----11----11----1----3----3----3----3----3/6---|
B----11----11----11----11----3----4----4----4----4----4/8-----|
G--12----12----12----12----3----5----5----5----5----5/8-------|
D-------------------------------------------------------------|
A-------------------------------------------------------------|
E-------------------------------------------------------------|


Round 1 X2

Round 2

Round 1

Haven't found a proper tab of this song yet, therefore I tried making one myself. It's 
not a 100% correct, but at least it's fairly close...I hope.
Tap to rate this tab
 
# A B C D E F G H I J K L M N O P Q R S T U V W X Y Z