Song name
# A B C D E F G H I J K L M N O P Q R S T U V W X Y Z

Ratatat - Wildcat tab

This is my first tab so it's probably not perfect :P

Intro
e|-----13-x-13----------------x-13-----------------------------------------|
B|-------------------------------------------------------------------------|
D|-------------------------------------------------------------------------|
G|-------------------------------------------------------------------------|
A|-------------------------------------------------------------------------|
E|-------------------------------------------------------------------------|

And after a while...
e|-----12b-----------------------------------------------------------------|
B|---------13--------------------------------------------------------------|
D|-------------------------------------------------------------------------|
G|-------------------------------------------------------------------------|
A|-------------------------------------------------------------------------|
E|-------------------------------------------------------------------------|

Then this comes in in the background...
e|---4---/15---13\8--9\4--6\1-4---/15---13\8-------------------------------|
B|-------------------------------------------------------------------------|
D|-------------------------------------------------------------------------|
G|-------------------------------------------------------------------------|
A|-------------------------------------------------------------------------|
E|-------------------------------------------------------------------------|

1st solo goes something like this, uncertain about the last part...
e|-------------------------------------------------------------------------|
B|------------------------------------------6--6---------------------------|
D|--15b-15-13-15-12-13-12-13b-10-8-12-10-6-5--4--3-------------------------|
G|-------------------------------------------------------------------------|
A|-------------------------------------------------------------------------|
E|-------------------------------------------------------------------------|

Bridge, mute the strings with your hand. Also, improvise a bit...
e|-------------------------------------------------------------------------|
B|-------------------------------------------------------------------------|
D|--5h6-6-5h6-66666--5h6-6-5h6-66666--3h5-5-3h5-55555--3h5-5-3h5-55553-----|
G|-------------------------------------------------------------------------|
A|-------------------------------------------------------------------------|
E|-------------------------------------------------------------------------|

2nd solo/Outro
e|-------------------------------------------------------------------------|
B|-------------------------------------------------------------------------|
D|--15-10-15-17-18-18-17-15-17-10-13-15-10-8-5/6--8-10-6-10-13-13-10-13-15-|
G|-------------------------------------------------------------------------|
A|-------------------------------------------------------------------------|
E|-------------------------------------------------------------------------|

e|-------------------|
B|-------------------|
D|-10-8-5------------|
G|-------------------|
A|-------------------|
E|-------------------|
Tap to rate this tab
 
# A B C D E F G H I J K L M N O P Q R S T U V W X Y Z