Song name
# A B C D E F G H I J K L M N O P Q R S T U V W X Y Z

Ratatat - Bare Feast tab

Artist: Ratatat
Song: Bare Feast
Album: LP4

Tuning: Standard

/ = Slide

This song is actually played on some sort of harp i think,
but this is a version you can play on your guitar.
The strumming pattern is extremely fast in the original song
but this tab is simplified a little so you can play it on your guitar.

For Guitars 1 & 2

Guitar 1 Riff 1:
e:---------------------------------------------------------------|
B:---------------------------------------------------------------|
G:---------------------4--3-----3--3--3-----------4--3----3---3--|
D:--4--4--4-44----4/6-----------------------4/6------------------|
A:---------------------------------------------------------------|
E:---------------------------------------------------------------|

e:---------------------------------------|
B:---------------------------------------|
G:--------4 1---1--1/3/4-----------------|
D:--4-4-4----------------------     x  3-|
A:---------------------------------------|
E:---------------------------------------|

Then guitar two comes in OVER guitar one:

Guitar 2 Riff 1: (Same Riff just higher)

e:---------------------------------------------------------------|
B:---------------------------------------------------------------|
G:---------------------7--6-----6--6--6-----------7--6----6---6--|
D:--7--7--7-77----7/9-----------------------7/9------------------|
A:---------------------------------------------------------------|
E:---------------------------------------------------------------|

e:---------------------------------------|
B:---------------------------------------|
G:--------7 ---4--4/6/7------------------|
D:--7-7-7----------------------     x  7-|
A:---------------------------------------|
E:---------------------------------------|

All guitars stop for a while, then...

Guitar 1 Riff 1 Again x 4

and lastly...

Guitar 1 Riff 2:

VERY difficult strumming pattern (simplified) consisting of mostly 3 notes:
e:---------------------------------------------------------------|
B:---------------------------------------------------------------|
G:------------------------6/8-------------------8--8-------------|
D:----------5-5--5-5---5----------5-5--5-5---5---5---5-----------|  x about 16
A:---------------------------------------------------------------|
E:---------------------------------------------------------------|
Tap to rate this tab
 
# A B C D E F G H I J K L M N O P Q R S T U V W X Y Z