Ratatat - Sunblocks tab

-------------------------------------------------------------------------------
			     Sunblocks - Ratatat
-------------------------------------------------------------------------------
Tabbed by: Antoine Llorca
Twitter: @antoinellorca

Tuning: Standard

e|---------------------17\13-------------------------------------------------|
B|--13b11--10~--16/18---------13b15--15b13-----------------13----------------|
G|------------------------------------------14--9\7/10/14------12p14---------|
D|---------------------------------------------------------------------------|
A|---------------------------------------------------------------------------|
E|---------------------------------------------------------------------------|

e|---------------------------------------------------------------------------|
B|----------13/15--13--15------15b17--15b17b15--13--15--13p15p13\10p13-------|
G|--12--14-----------------12------------------------------------------------|
D|---------------------------------------------------------------------------|
A|---------------------------------------------------------------------------|
E|---------------------------------------------------------------------------|

e|---------------------------------------------------------------------------|
B|--13-----------------------------------------------------------------------|
G|------12p14\9--------------------------------------------------------------|
D|---------------------------------------------------------------------------|
A|---------------------------------------------------------------------------|
E|---------------------------------------------------------------------------|


************************************

| /   slide up
| \   slide down
| h   hammer-on
| p   pull-off
| ~   vibrato
| +   harmonic
| x   Mute note
| b   Bend
| pb  Pre-bend
| br  Bend release
| pbr Pre-bend release
| brb Bend release bend

************************************
Tap to rate this tab
 
# A B C D E F G H I J K L M N O P Q R S T U V W X Y Z