Song name
# A B C D E F G H I J K L M N O P Q R S T U V W X Y Z

Ratatat - Mi Viejo tab

-------------------------------------------------------------------------------
                             Mi Viejo - Ratatat
-------------------------------------------------------------------------------
Tabbed by: hgrf93
E-mail: hgrf93@gmail.com

Tuning: Standard

e|---------------------------------------------------------|
B|---------------------------------------------------------|
G|-----3--------3--7---------------------------------------|
D|--5-----5--5---------------------------------------------|  X2
A|---------------------------------------------------------|
E|---------------------------------------------------------|

e|---------------------------------------------------------|
B|---------------------------------------------------------|
G|---7--5--8--7--5----5--3--5--3----3--2-------------------|
D|----------------------------------------3------------1h3-|
A|------------------------------------------3----3h5-------|
E|---------------------------------------------------------|

First part of the riff later changes to this:
e|---------------------------------------------------------|
B|---------------------------------------------------------|
G|----3--------3--7-------3-----3-----3--7-----------------|
D|-5-----5--5----------5-----5-----5-----------------------|
A|---------------------------------------------------------|
E|---------------------------------------------------------|

Legend:

************************************
| h   hammer-on
************************************
Tap to rate this tab
 
# A B C D E F G H I J K L M N O P Q R S T U V W X Y Z