Guitaretab - guitar tabs
Song name
# A B C D E F G H I J K L M N O P Q R S T U V W X Y Z

Ratatat - El Pico tab

This is the opening keyboard riff.  Feel free to email me about whatever you think
should change.

The entire E string and the D string after the letter "b" make up of the bass line.
This is optional, but recomended =D
[ Tab from: http://www.guitaretab.com/r/ratatat/71279.html ]
E--7-----7------------5-----5----------7-----7--8-------8--7-----7--5-----5-|
B------8---8-------8------5---7-----7------8---------10--------8--------7---|
G----9---------9--------5---------7------9--------11---------7--------7-----|
D------------9------------------9---------------0-------0--5-----5--0-----0-|
A---------------------------------------------------------------------------|
E--0---------8-7h8p7--5-----5-7-----7--0-----0------------------------------|
                                                b
Fingering chords then finger picking helps

E---7------------------5----------------7--------8----------7--------5-----|
B---8------------------5-------7--------8-------10----------8--------7-----|
G---9------------------5-------7--------9-------11----------7--------7-----|
D---9--------------------------9-----------------0----------5--------0-----|
A--------------------------------------------------------------------------|
E---0------------------5-------7--------0----------------------------------|


~Brett. (xdomestica@gmail.com)
Related for El Pico tab
Advertisement will be closed in 10 seconds