Song name
# A B C D E F G H I J K L M N O P Q R S T U V W X Y Z

Ratatat - Swisha tab

0:00-038
|--2--------0-----7-----0--3--------3--------3-----|
|-----3--------8-----8--------5--------5--------5--|
|--------4-----------------------6--------6--------|
|--------------------------------------------------|
|--------------------------------------------------|
|--------------------------------------------------|

0:40
|---------------------------------------|
|--8--7--5--0--2--3--2--3--5--3---------|
|--9--7--6------------------------------|
|---------------------------------------|
|---------------------------------------|
|---------------------------------------|

0:46
|-----------------------------------------|
|-----------------------------------------|
|---8-----10------------------8---7-------|
|----------------7-----9------------------|
|-----------------------------------------|
|-----------------------------------------|

0:51
|------------------------------|
|--0--2--3--2--3--5--3----0----|
|------------------------------|
|------------------------------|
|------------------------------|
|------------------------------|

0:56
|-----------------------------------------|
|-----------------------------------------|
|---8-----10------------------7---8-------|
|----------------7-----9------------------|
|-----------------------------------------|
|-----------------------------------------|
Tap to rate this tab
# A B C D E F G H I J K L M N O P Q R S T U V W X Y Z