Song name
# A B C D E F G H I J K L M N O P Q R S T U V W X Y Z

Ratcat - Dont Go Now tab

this one is pretty bang on i reckons
first tab so be nice kiddies

	       G              C
Well I've been looking around for

some kind of feeling
AM               D
some kind of sensation,
G       C          AM            D
and you know i can feel it all inside.
G       C
I don't care where you've been,
AM                  D
and i don't care to see what you've seen.
G         C              AM                  D
Don't you know I will be dying to be by your side.
            G C G C       G C G C      G C G C     D
oh Don't go now,Don't go now, Don't go now,dont go now.....
        G C G C     G C G C     G C G C     D (HOLD D)
dont go now,dont go now,dont go now,dont go now

CHORDS SAME AGAIN

Well You can have my heart,and have my soul,
without you i feel cold.
Won't you come with me and i will make you happy.
And then when I'm alone, I dream of you,
til the day is done,
Don't you know I will be dying to be by your side.
Oh Don't go now, Don't go now, Don't go now....

SOLO (SOUNDS GOOD DISTORTED WITH A BIT OF PHASER)
PLAY VERSE RYTHYM BEHIND IT WITH 2ND GEETAR(IF YER HAVE ONE)
E---------------------------------------------------------------|
B---------------------------------------------------------------|
G---------------------------------------------------------------|
D-------------2---0-0-0-0-0-------------------2---0-0-0-0-0-0-4-|
A-----2---3-3---3-----------3-2-3-----2---3-3---3---------------|
E-3-3---3-------------------------3-3---3-----------------------|


E---------------------------------------------------------------|
B-----------------1-1-0-----3-1-0-------0-1-1-0-----------------|
G-0-0-0-2-4-4-2-4-------0-2-------0-0-0---------0-2-2-2-2-etc..-|
D---------------------------------------------------------------|
A---------------------------------------------------------------|
E---------------------------------------------------------------|

E-10-10-10-10-9-9-9-9-9-7-7-7-7-5-5-5-5-5-0-3-3-3-3-3-3-3-3-----|
B-10-10-10-10-9-9-9-9-9-7-7-7-7-5-5-5-5-5-0-3-3-3-3-3-3-3-3-----|
G-----------------------------------------------------0---0--*3-|
D-----------------------------------------------------0-2-0-----|
A-------------------------------------------2-2-2-2-2-0-3-0-----|
E-------------------------------------------3-3-3-3-3-----------|

THEN JUST LIKE NOODLE ON A D AND DSUS

then crack back into g c am d for the verses

I will love you, I will love you forever.
When you smile at me it makes me feel so happy.
And then when I'm alone, I dream of you,
til the day is done,
Don't you know I will be dying to be by your side.
Don't go now, Don't go now, Don't go now

NOODLE ON D AND DSUS
I Wanna live, I Wanna live, I Wanna
                     G
live with You til i Die


ahhhhhhhhh RATCAT!!what a song!!
Tap to rate this tab
# A B C D E F G H I J K L M N O P Q R S T U V W X Y Z