Song name
# A B C D E F G H I J K L M N O P Q R S T U V W X Y Z

Ratcat - Dont Go Now tab

[SOLO RIFF] (here goes nothin' - I think the stuff on the B string is wrong)
        (Oh, also note that dots between notes mean to play quicker)

E |------------------------------------------------------------------------|
B |------------------------------------------------------------------------|
G |------------------------------------------------------------------------|
D |--------------------2-----0.0.0-0.0.0------------------------------2----|
A |-------2-----3.3.3-----3---------------3--2--3--------2-----3.3.3-----3-|
E |-3--3-----3-------------------------------------3--3-----3--------------|

E |-----------------------------------------------------------------------|
B |----------0--1-1.1--0--1--1--1--0--------3--1--0-----------0--1.1--0.0-|
G |-0--0--0---------------------------0--2-----------0--0--0--------------|
D |-----------------------------------------------------------------------|
A |-----------------------------------------------------------------------|
E |-----------------------------------------------------------------------|

E |---------------10--10--10---8--8--8.8---7--7--7---5--5--5.5------------|
B |---------------10--10--10---8--8--8.8---7--7--7---5--5--5.5------------|
G |-0--2.2...2.2----------------------------------------------------------|
D |-----------------------------------------------------------------------|
A |-----------------------------------------------------------------------|
E |-----------------------------------------------------------------------|

Transcibed by Ben Crossley
(p.s. Ratcat are a signed band I just can't find their website.)
Tap to rate this tab
 
# A B C D E F G H I J K L M N O P Q R S T U V W X Y Z