Song name
# A B C D E F G H I J K L M N O P Q R S T U V W X Y Z

Ratdog - Welcome To The World tab

Drop D tuning Tempo 115 bpm

Intro riff
      |----3---|   |----3---|   |----3---|   |--3--|   
      E    E   E   E    E   E   E    E   E   E  E  E   
E||---------------------------------------------------------|
B||---------------------------------------------------------|
G||---------------------------------------------------------|
D||---------------------------------------------------------|
A||--10h--12--12--10h--12--12--10h--12--12--10--7--5--------|
D||--10h--12--12--10h--12--12--10h--12--12--10--7--5--------|

  PM                                                               
  |---3---|    |---3---|    |---3---|    |---3---|     |--3--|  3  
  E   E   E    E   E   E    E   E   E    E   E   E     E  E  E  E  
----------------------------------------------------|-------------|
----------------------------------------------------|-------------|
----------------------------------------------------|-------------|
----------------------------------------------------|-------------|
--7--10--10h--12--12--10h--12--12--10h--12--12--10--|--7--5--3--0-|
--7--10--10h--12--12--10h--12--12--10h--12--12--10--|--7--5--3--0-|

Main riff
  |-3|    |--3-|  |----3----|       |-3|    |--3-|  |--3-|  |--3--|   
  E  Q    Q    E  Q    Q    Q       E  Q    Q    E  Q    E  E  E  E   
|--------------------------------|-----------------------------------|
|--------------------------------|-----------------------------------|
|--------------------------------|-----------------------------------|
|--------------------------------|-----------------------------------|
|--0--0----0----0--3----3----3---|--2--2----2----2--5----5--0--2--3--|
|--0--0----0----0--3----3----3---|--2--2----2----2--5----5--0--2--3--|
|
|--------------------------------|
|-Gtr 2 plays this(slight dist.)-|
|--------------------------------|
|--0--2----3----0--0----2----3---|
|--------------------------------|
|--------------------------------|

  |-3|    |--3-|  |----3----|       |-3|    |--3-|  |----3----|     
  E  Q    Q    E  Q    Q    Q       E  Q    Q    E  Q    Q    Q     
---------------------------------|---------------------------------|
---------------------------------|---------------------------------|
---------------------------------|---------------------------------|
---------------------------------|----------------------------5----|
--0--0----0----0--3----3----3----|--2--2----2----2-------5----L----|
--0--0----0----0--3----3----3----|--2--2----2----2--5----L----L----|

Verse
  PM----------------------------------------------------------------| 
  |-3|    |--3-|  |----3----|       |-3|    |--3-|  |--3-|  |--3--|   
  E  Q    Q    E  Q    Q    Q       E  Q    Q    E  Q    E  E  E  E   
---------------------------------|-----------------------------------|
---------------------------------|-----------------------------------|
---------------------------------|-----------------------------------|
---------------------------------|-----------------------------------|
--0--0----0----0--3----3----3----|--2--2----2----2--5----5--0--2--3--|
--0--0----0----0--3----3----3----|--2--2----2----2--5----5--0--2--3--|

  PM----------------------------------------------|                 
  |-3|    |--3-|  |----3----|       |-3|    |--3-|  |----3----|     
  E  Q    Q    E  Q    Q    Q       E  Q    Q    E  Q    Q    Q     
---------------------------------|---------------------------------|
---------------------------------|---------------------------------|
---------------------------------|---------------------------------|
---------------------------------|----------------------------5----|
--0--0----0----0--3----3----3----|--2--2----2----2-------5----L----|
--0--0----0----0--3----3----3----|--2--2----2----2--5----L----L----|

Duration Legend
---------------
W - whole
H - half
Q - quarter
E - 8th
S - 16th
T - 32nd
X - 64th
. - note dotted
|-3-|  - triplets

Tablature Legend
----------------
L - tied note
h - hammer on
PM - palm mute
Tap to rate this tab
 
# A B C D E F G H I J K L M N O P Q R S T U V W X Y Z