Song name
# A B C D E F G H I J K L M N O P Q R S T U V W X Y Z

Ratos De Porao - Nao Me Importo tab

Ratos de porao - Nao me importo

to evident that they exist and are on a label:
http://www.myspace.com/ratos 

Riff 1 4x
e:----------------|----------------|----------------|----------------|
b:----------------|----------------|----------------|----------------|
g:----------------|5---5-5---5-5-5-|----------------|----------------|
d:7---7-7---7-7-7-|5---5-5---5-5-5-|5---5-5---5-5-5-|7---7-7---7-7-7-|
a:7---7-7---7-7-7-|3---3-3---3-3-3-|5---5-5---5-5-5-|7---7-7---7-7-7-|
e:5---5-5---5-5-5-|----------------|3---3-3---3-3-3-|5---5-5---5-5-5-|

Riff 2 2x
e:----------------|----------------|----------------|----------------|
b:----------------|----------------|----------------|----------------|
g:----------------|5---x-x-x-x-x-x-|----------------|----------------|
d:7---x-x-x-x-x-x-|5---x-x-x-x-x-x-|5---x-x-x-x-x-x-|7---x-x-x-x-x-x-|
a:7---x-x-x-x-x-x-|3---x-x-x-x-x-x-|5---x-x-x-x-x-x-|7---x-x-x-x-x-x-|
e:5---x-x-x-x-x-x-|----------------|3---x-x-x-x-x-x-|5---x-x-x-x-x-x-|

Riff 1 4x
Riff 2 2x
Riff 1 4x
Riff 2 2x

end on A (577---)
Tap to rate this tab
 
# A B C D E F G H I J K L M N O P Q R S T U V W X Y Z