Guitaretab - guitar tabs
Song name
# A B C D E F G H I J K L M N O P Q R S T U V W X Y Z

Ratt - Never Use Love tab

Song:Never Use Love
Artist:Ratt
Album:Invasion Of Your Privacy
Tuning:Half Step Down

Intro/Verse Riff:                          ~~~              ~~~         ~~~
|--------------------------------------------------------------------------|
|--------------------------------------------------------------------------|
|--0-----------0---------------2-----7-------------------------------------|
|--0-h2--------0-------0h2-----2-----7-----0h2-----------------------------|
|----h2----------------0h2-----------------0h2--------5--------7--5--4--3--|
|--------0--0-----0-0-------0-----0-------------0--0--------0--------------|

    Sl.                                  ~~~             ~~~
|--------------------------------------------------------------------------|
|-----------------------------------------------------------------7--6--5--|
|-----------------0----------------2-----7------------------------7--6--5--|
|--5/--0h2--------0--------0h2-----2-----7----0h2-----------------7--6--5--|
|------0h2-----------------0h2----------------0h2--------5-----7--5--4--3--|
|-----------0--0-----0--0-------0-----0------------0--0-----0--------------|
[ Tab from: http://www.guitaretab.com/r/ratt/107151.html ]
Chorus Riff:
|--------------------------------------------------------------------------|
|--------------------------------------------------------------------------|
|--3----3--3---------------------------------------------------------------|
|--3----3--3--3----3-----2---------------5------------5--------------------|
|--1----1--1--3----3-----0-----3/5-------5--5\3-------5--------------------|
|-------------1----1--3-----1--1/3----3-----3\1----3-----------------------|

Intro/Verse Riff:                          ~~~              ~~~         ~~~
|--------------------------------------------------------------------------|
|--------------------------------------------------------------------------|
|--0-----------0---------------2-----7-------------------------------------|
|--0-h2--------0-------0h2-----2-----7-----0h2-----------------------------|
|----h2----------------0h2-----------------0h2--------5--------7--5--4--3--|
|--------0--0-----0-0-------0-----0-------------0--0--------0--------------|

    Sl.                                  ~~~             ~~~
|--------------------------------------------------------------------------|
|-----------------------------------------------------------------7--6--5--|
|-----------------0----------------2-----7------------------------7--6--5--|
|--5/--0h2--------0--------0h2-----2-----7----0h2-----------------7--6--5--|
|------0h2-----------------0h2----------------0h2--------5-----7--5--4--3--|
|-----------0--0-----0--0-------0-----0------------0--0-----0--------------|

Chorus Riff:
|--------------------------------------------------------------------------|
|--------------------------------------------------------------------------|
|--3----3--3---------------------------------------------------------------|
|--3----3--3--3----3-----2---------------5------------5--------------------|
|--1----1--1--3----3-----0-----3/5-------5--5\3-------5--------------------|
|-------------1----1--3-----1--1/3----3-----3\1----3-----------------------|

Any Question or comments
email me motleykrew24@hotmail.com

Related for Never Use Love tab
Advertisement will be closed in 10 seconds