Guitaretab - guitar tabs
Song name
# A B C D E F G H I J K L M N O P Q R S T U V W X Y Z

Ratt - Lay It Down tab

Here is the solo for "Lay It down"
The tuning is in the other file

Notation Guide
/sl - Slide
/F  - Bend Full
/H  - Bend Half
p   - pull off
h   - hammer on

Guitar solo:

-----------------------------------------------------------------------|
-------------------------3-----3/~~~~~~~~~~~~~~--5/H-----5/H--------5~-|
----5~~~~~~~~~~~~~~~~~~------------------------------------------------|
-----------------------------------------------------------------------|
-----------------------------------------------------------------------|
-----------------------------------------------------------------------|
______________________________________________________________________

---6--------------------------------------------8------------8--------|
-------------------------3----------------------11/F------------------|
----------------------3-----3--------9/sl-----------------------------|
-------5-----------5--------------------------------------------------|
----------------------------------------------------------------------|
----------------------------------------------------------------------|
______________________________________________________________________

----------------8-----------------------------------------------------|
--11/F--------------8--11------8--------------------------------------|
--------------------------10-----8--10------8-----10/F----------------|
----------------------------------------10-----8----------------------|
----------------------------------------------------------------------|
----------------------------------------------------------------------|
______________________________________________________________________

------------------8------------------8---------------------------------|
--11/F----------------11--8-------8-----11--8--8--8--------------------|
----------------------------10/F---------------------11--10--8~~~~~~~~-|
-----------------------------------------------------------------------|
-----------------------------------------------------------------------|
-----------------------------------------------------------------------|
______________________________________________________________________

----------------------------------------------------------------------|
-------------------------------------------------------13-------------|
--10--X--10--10----10--11--10--8------10--8--10/sl-12------12---------|
----------------------------------10----------------------------------|
----------------------------------------------------------------------|
----------------------------------------------------------------------|
______________________________________________________________________

-------------15--13--11-----------------11-----11-----11--------------|
--13--13~~~~~------------15--13--11-----14/F---14/F---14/F------------|
----------------------------------------------------------------------|
----------------------------------------------------------------------|
----------------------------------------------------------------------|
----------------------------------------------------------------------|
______________________________________________________________________

--11----------15--11--15--13----------11-----11-----10----------------|
------15--11------------------15--11--14/F---14/F---13/F----END-------|
----------------------------------------------------------------------|
----------------------------------------------------------------------|
----------------------------------------------------------------------|
----------------------------------------------------------------------|
______________________________________________________________________
[ Tab from: http://www.guitaretab.com/r/ratt/128185.html ]
HERE IS THE RYTHYM GUITAR FOR UNDER THE SOLO:

----------------------------------------------------------------------|
------------6-p-5-----------------------------------------------------|
--5---------5------------7-p-5--------7-----8-------------8-----------|
--5---------5------------5------------5-----6-------------6-----------|
--3---3--3--3------3--3--3------3--3-----3----------3--3-----3/sl-5---|
----------------------------------------------------------------------|
______________________________________________________________________

                  |REPEAT 1X from this point
------------------|----------------------------------------------------|
------------------|----------------------------------------------------|
--3------3------5-|----------------------------------------------------|
--3------3------5-|----------------------------------------------------|
------5------3--3-|----------------------------------------------------|
------------------|----------------------------------------------------|
______________________________________________________________________

THEN GO TO THIS TO END THE SOLO OUT
----------------------------------------------------------------------|
--------6-p-5---------------------------------------------------------|
--------5------------7-p-5--------7-----8----------8--------8---8---8-|
--------5------------5------------5-----6----------6--------6---6---6-|
--3--3--3------3--3--3------3--3-----3-------3--3-----3--3----3---3---|
----------------------------------------------------------------------|
______________________________________________________________________

----------------------------------------------------------------------|
----------------------------------------------------------------------|
--------8--------8--------8------7------------------------------------|
--------6--------6--------6------7---END------------------------------|
--3--3-----3--3--------3---------5------------------------------------|
----------------------------------------------------------------------|
______________________________________________________________________

SOLO AT END OF TUNE
     (w/Whammy Dips)
--10------------------10--10---------------------------------------------|
--13--------------------------13--12--12--12--12--10--10--12-10-------10-|
----------------------------------------------------------------12-------|
-------------------------------------------------------------------12----|
-------------------------------------------------------------------------|
-------------------------------------------------------------------------|
______________________________________________________________________
              (dive w/whammy)
-------------------------------------------------------------------------|
--10---------10\--------------12--12--X--12--12--------------------------|
------------------------------12--12--X--12--12--10----------------------|
-----------------------------------------------------12~~~~~~~~----------|
---------------------------------------------------------------12--10----|
----------------------------------------------------------------------12-|
______________________________________________________________________

----------------------------------------------------------------------|
----------------------------------------------------------------------|
----------------------------------------------------------------------|
----------------------------------------------------------------------|
----------------------------------------------------------------------|
--12~~~~~~~~~~~~~~~~~~~~~~~~~~~~~~~~~~~~~~~~~~~~~~~~~~~~~~~~~~~~~~~~--|

Well that's it
Have Fun and ROCK ON!!!!!!!!!!!!!!!!!!!!!!
Related for Lay It Down tab
×
Best way to learn
"Lay It Down"