Song name
# A B C D E F G H I J K L M N O P Q R S T U V W X Y Z

Ratt - One Step Away tab

-------------------------------------------------------------------------------
			     SONG NAME - Band Name
                           One Step Away  - RATT
-------------------------------------------------------------------------------
Tabbed by: Michael J. Richardson
Email:

Tuning:E

e|---------------------------------------------------------------------------|
B|-\13-12----13-12-------------12-13-12---15~---15f-15f-15--12-1512~--/12/10-|
G|-------12--------1212~-----12---------12-----------------------------------|
D|---------------------------------------------------------------------------|
A|---------------------------------------------------------------------------|
E|---------------------------------------------------------------------------|

e|-----------------------------------------------------------------17f-17---|
B|/8-7~-8~----------------------------------17--17~--17--19f----------------|
G|---------7~-/------7-7-9-7--7h-9-/-----\16--16-------------16~------------|
D|-----------------\9-------------------------------------------------------|
A|--------------------------------------------------------------------------|
E|--------------------------------------------------------------------------|

e|-17f-15~------------------------------------------------------------------|
B|--------------------------------------------------------------------------|
G|--------------------------------------------------------------------------|
D|--------------------------------------------------------------------------|
A|--------------------------------------------------------------------------|
E|--------------------------------------------------------------------------|
Tap to rate this tab
# A B C D E F G H I J K L M N O P Q R S T U V W X Y Z