Guitaretab - guitar tabs
Song name
# A B C D E F G H I J K L M N O P Q R S T U V W X Y Z

Ratt - Top Secret tab

Tabbed by: H.E.L.L.I.O.N.
Email: janiel@windowslive.com

Artist: RATT
Title: Top Secret (Intro)
Album: Detonator

Tuning: Standard (E)       h = hammer-on    ~ = bar vibrato

E|------------------------------------3---------------------------|
H|------------------------------------3---------------------------|
G|----------------------------------------------------------------|
D|----------------------------------------------------------------|
A|-----1-----1-----1-----1-----1h2----------1-----1-----1-----1h2-|
E|-0-0---0-0---0-0---0-0---0-0----0-0---0-0---0-0---0-0---0-0-----|
[ Tab from: http://www.guitaretab.com/r/ratt/187010.html ]
E|-----3------------------------------3---------------------------|
H|-----3------------------------------3---------------------------|
G|----------------------------------------------------------------|
D|----------------------------------------------------------------|
A|-----------1-----1-----1-----1h2----------1-----1-----1-----1h2-|
E|-0-0---0-0---0-0---0-0---0-0----0-0---0-0---0-0---0-0---0-0-----|

E|-----3~--------------------0-0-0---------------------------------|
H|-----3~--------------------0-0-0---------------------------------|
G|-----------------------------------------------------------------|
D|-----------------------------------------------------------------|
A|-------------------------------------1-----1-----1-----1-----1h2-|
E|-0-0-----------------------------0-0---0-0---0-0---0-0---0-0-----|

E|-----3------------------------------3---------------------------|
H|-----3------------------------------3---------------------------|
G|----------------------------------------------------------------|
D|----------------------------------------------------------------|
A|-----------1-----1-----1-----1h2----------1-----1-----1-----1h2-|
E|-0-0---0-0---0-0---0-0---0-0----0-0---0-0---0-0---0-0---0-0-----|

This is not much , but enjoy it.
Related for Top Secret tab
Advertisement will be closed in 10 seconds