Song name
# A B C D E F G H I J K L M N O P Q R S T U V W X Y Z

Ratt - Lay It Down tab

Band: Ratt
Song: Lay it down
Taber: Todo-Gusar

/ - slide
B - bend full
b - bend half
p - pull off
h - hammer on
m - muted string
~ - vibrato



e----------------------------------------------------------|
b---------3--3b~~--5b--5b----5~----------------------------|
g----5~~~-------------------------5------------7/3--3~~----|
d-----------------------------------5~~--5m-8m-------------|
a----------------------------------------------------------|
d----------------------------------------------------------|

e-8----8---------------------------------------------------|
b-11B----8--11-----8---------------------------------------|
g--------------10----8--10-----8----10B-10~~---------------|
d--------------------------10----8-------------------------|
a----------------------------------------------------------|
d----------------------------------------------------------|

e-----8------------8---------------------------------------|
b-11B---11p8-----8------8h11p8-----------------------------|
g------------10B-----10--------11p10p8~~-------------------|
d----------------------------------------------------------|
a----------------------------------------------------------|
d----------------------------------------------------------|

e----------------------------------------------------------|
b-------------------------------13----13-13~~--------------|
g--------10---10h11p10----10/12----12----------------------|
d------8---------------13----------------------------------|
a-8-10-----------------------------------------------------|
d----------------------------------------------------------|

e-15p13p11-----------11--11--11----------------------------|
b----------15p13p11--14B-14B-14B~~-------------------------|
g----------------------------------------------------------|
d----------------------------------------------------------|
a----------------------------------------------------------|
d----------------------------------------------------------|

e-------15p11-15p13p10----11--11--10-----------------------|
b-15p11---------------11--14B-14B-13B~~--------------------|
g----------------------------------------------------------|
d----------------------------------------------------------|
a----------------------------------------------------------|
d----------------------------------------------------------|

Tap to rate this tab
# A B C D E F G H I J K L M N O P Q R S T U V W X Y Z