Song name
# A B C D E F G H I J K L M N O P Q R S T U V W X Y Z

Ratt - Back For More tab

Here it is...
Intro (Crosby-12 string)
Tuning:EADGBe

|--------------------------------------------------------------|
|--------------------------------------------------------------|
|--2---------------4------4--2--2--2-------------4--4--2--2--2-|
|--2---------------2------2--2--2--3-------------3--3--3--0--4-|
|--0--0-0-0-0-0-0-----0-0------------0-0-0-0-0-0---------------|
|--------------------------------------------------------------|
     |PM........|     |PM|          |PM.........|  
 
|--------------------------------------------------------------|
|-----------------0------0-------------------------------------|
|--4--4--4----------2------2-------4---4---6-------------------|
|--4--4--2--0--5------5-------5----5---5---7-------------------|
|-------------------------------0------------------------------|
|--------------------------------------------------------------|

|-------------------------------------0--------0---------------|
|---------------------------------------0--------0-------------|
|--2---------------4------4--2-----2------2--------2-----------|
|--2---------------2------2--2---3-----------3--------3--------|
|--0--0-0-0-0-0-0-----0-0--------------------------------------|
|--------------------------------------------------------------|
     |PM.........|   |PM.|

|--------------------------------------------------------------|
|-----------------------------------0------0-------------------|
|--2--4-------------4--4--2-----------2------2-----------------|
|--2--2-------------2--2--2---0--5------5------5---------------|
|-------0-0-0-0-0-0------------------------------0-------------|
|--------------------------------------------------------------|
       |PM.........|
Tap to rate this tab
 
# A B C D E F G H I J K L M N O P Q R S T U V W X Y Z