Song name
# A B C D E F G H I J K L M N O P Q R S T U V W X Y Z

Ratt - Lack Of Communication tab

-----------------------------------------------------------------------------
		   
                Lack of Communication - Ratt (GUITAR)
            
-----------------------------------------------------------------------------
Tabbed by: Scotto10

Tuning: Drop D

=============================================================================

Guitar 1



             E  E  E  E  E  E  E  E     E  E  E  E  E  E  E  E   
E||-------|--------------------------|--------------------------|
B||-------|--------------------------|--------------------------|
G||-------|--------------------------|--------------------------|
D||-------|--------7-----5-----------|--5--------5--------7-----|
A||-------|--------5-----3-----------|--3--------3--------5-----|
D||-------|--0--0-----0-----0--0--0--|-----0--0-----0--0-----0--|


  E  E  E  E  E  E  E  E     E  E  Q       E  E  E  E  E  E  E  E   
--------------------------|-------------|--------------------------|
--------------------------|-------------|--------------------------|
--------------------------|-------------|--------------------------|
--5-----------5--------5--|--------2----|--------7-----5-----------|
--3-----------3--------3--|--------0----|--------5-----3-----------|
-----0--0--0-----0--0-----|--0--0-------|--0--0-----0-----0--0--0--|


  E  E  E  E  E  E  E  E     E  E  E  E  E  E  E  E     Q     Q      
--------------------------|--------------------------|--------------|
--------------------------|--------------------------|--------------|
--------------------------|--------------------------|--------------|
--5--------5--------7-----|--5-----------5--------5--|--------------|
--3--------3--------5-----|--3-----------3--------3--|--------------|
-----0--0-----0--0-----0--|-----0--0--0-----0--0-----|-------20\----|


  E  E  E  E  E  E  E  E     E  E  E  E  E  E  E  E   
--------------------------|--------------------------|
--------------------------|--------------------------|
--------------------------|--------------------------|
--------7-----5-----------|--5--------5--------7-----|
--------5-----3-----------|--3--------3--------5-----|
--0--0-----0-----0--0--0--|-----0--0-----0--0-----0--|


  E  E  E  E  E  E  E  E     E  E  Q       E  E  E  E  E  E  E  E   
--------------------------|-------------|--------------------------|
--------------------------|-------------|--------------------------|
--------------------------|-------------|--------------------------|
--5-----------5--------5--|--------2----|--------7-----5-----------|
--3-----------3--------3--|--------0----|--------5-----3-----------|
-----0--0--0-----0--0-----|--0--0-------|--0--0-----0-----0--0--0--|


  E  E  E  E  E  E  E  E     E  E  E  E  E  E  E  E     E  E  Q     
--------------------------|--------------------------|-------------|
--------------------------|--------------------------|-------------|
--------------------------|--------------------------|-------------|
--5--------5--------7-----|--5-----------5--------5--|--------2----|
--3--------3--------5-----|--3-----------3--------3--|--------0----|
-----0--0-----0--0-----0--|-----0--0--0-----0--0-----|--0--0-------|


  W                   H        E  E  E  E      W                 
-------------------|------------------------|-------------------|
-------------------|------------------------|-------------------|
-------------------|--------------7-----7s--|--5----------------|
-------------------|--------------5-----5s--|--3----------------|
--3----------------|--L---------------------|-------------------|
--3----------------|--L---------------------|-------------------|


  Q    Q    E  E  E  E     E  E  E  E  E  E  E  E     E  E  E  E  E  E  E  E  

 
------------------------|--------------------------|------------------------|
------------------------|--------------------------|------------------------|
--L---------------------|--------------------------|------------------------|
--L---------------------|--------7-----5-----------|--5--------5--------7---|
------------3-----------|--------5-----3-----------|--3--------3--------5---|
------------3--2--1--0--|--0--0-----0-----0--0--0--|-----0--0-----0--0-----0|


  E  E  E  E  E  E  E  E     E  E  Q       W                 
--------------------------|-------------|-------------------|
--------------------------|-------------|-------------------|
--------------------------|-------------|-------------------|
--5-----------5--------5--|--------2----|-------------------|
--3-----------3--------3--|--------0----|--3----------------|
-----0--0--0-----0--0-----|--0--0-------|--3----------------|


  H        E  E  E  E      W                   Q    Q    E  E  E  E   
------------------------|-------------------|------------------------|
------------------------|-------------------|------------------------|
--------------7-----7s--|--5----------------|--L---------------------|
--------------5-----5s--|--3----------------|--L---------------------|
--L---------------------|-------------------|------------3--2--1--0--|
--L---------------------|-------------------|------------3--2--1--0--|


  E  E  E  E  E  E  E  E     E  E  E  E  E  E  E  E   
--------------------------|--------------------------|
--------------------------|--------------------------|
--------------------------|--------------------------|
--------7-----5-----------|--5--------5--------7-----|
--------5-----3-----------|--3--------3--------5-----|
--0--0-----0-----0--0--0--|-----0--0-----0--0-----0--|


  E  E  E  E  E  E  E  E     E  E  Q       W                 
--------------------------|-------------|-------------------|
--------------------------|-------------|-------------------|
--------------------------|-------------|-------------------|
--5-----------5--------5--|--------2----|-------------------|
--3-----------3--------3--|--------0----|--3----------------|
-----0--0--0-----0--0-----|--0--0-------|--3----------------|


  H        E  E  E  E      W                   Q    Q    E  E  E  E   
------------------------|-------------------|------------------------|
------------------------|-------------------|------------------------|
--------------7-----7s--|--5----------------|--L---------------------|
--------------5-----5s--|--3----------------|--L---------------------|
--L---------------------|-------------------|------------3-----------|
--L---------------------|-------------------|------------3--2--1--0--|


  E  E  E  E  E  E  E  E     E  E  E  E  E  E  E  E   
--------------------------|--------------------------|
--------------------------|--------------------------|
--------------------------|--------------------------|
--------7-----5-----------|--5--------5--------7-----|
--------5-----3-----------|--3--------3--------5-----|
--0--0-----0-----0--0--0--|-----0--0-----0--0-----0--|


  E  E  E  E  E  E  E  E     E  E  Q       W                 
--------------------------|-------------|-------------------|
--------------------------|-------------|-------------------|
--------------------------|-------------|-------------------|
--5-----------5--------5--|--------2----|-------------------|
--3-----------3--------3--|--------0----|--3----------------|
-----0--0--0-----0--0-----|--0--0-------|--3----------------|


  H        E  E  E  E      W                   Q    Q    E  E  E  E   
------------------------|-------------------|------------------------|
------------------------|-------------------|------------------------|
--------------7-----7s--|--5----------------|--L---------------------|
--------------5-----5s--|--3----------------|--L---------------------|
--L---------------------|-------------------|------------3-----------|
--L---------------------|-------------------|------------3--2--1--0--|


  E  E  E  E  E  E  E  E     E  E  E  E  E  E  E  E   
--------------------------|--------------------------|
--------------------------|--------------------------|
--------------------------|--------------------------|
--------7-----5-----------|--5--------5--------7-----|
--------5-----3-----------|--3--------3--------5-----|
--0--0-----0-----0--0--0--|-----0--0-----0--0-----0--|


  E  E  E  E  E  E  E  E     E  E  Q       Q    E  E  E  E  E  E   
--------------------------|-------------|-------------------------|
--------------------------|-------------|-------------------------|
--------------------------|-------------|----------------9--------|
--5-----------5--------5--|--------2----|----------------7--------|
--3-----------3--------3--|--------0----|--5----------------x--x--|
-----0--0--0-----0--0-----|--0--0-------|--5----5--5--5-----------|


  E  E  E  E  E   E  E  E     Q    E  E  E  E  E  E   
---------------------------|-------------------------|
---------------------------|-------------------------|
--9-----9-----9s--7--------|-------7--------7--------|
--7-----7-----7s--5--------|-------5--------5--------|
-----x-----x---------------|----------x--x-----x--x--|
---------------------0--3--|--L----------------------|


                                  PM PM PM PM PM PM  
  E  E  E  E  E  E  E  E     Q    E  E  E  E  E  E   
--------------------------|-------------------------|
-----------------------3--|--L----------------------|
--7-----7-----5--5-----2--|--L----------------------|
--5-----5-----3--3-----0--|--L----7--7--7--7--7--7--|
--------------------------|-------5--5--5--5--5--5--|
--------------------0-----|-------0--0--0--0--0--0--|


  PM PM PM PM PM PM                PM PM PM PM PM PM  
  E  E  E  E  E  E   E  E     Q    E  E  E  E  E  E   
---------------------------|-------------------------|
---------------------------|-------------------------|
---------------------------|-------------------------|
--7--7--7--7--7--7s--5-----|-------------------------|
--5--5--5--5--5--5s--3--3--|--3----3--3--3--3--3--3--|
--0--0--0--0--0---------3--|--3----3--3--3--3--3--3--|


  E  E  E  E  E  E  E  E     E  E  E  E  E  E  E  E   
--------------------------|--------------------------|
--------------------------|--------------------------|
--------------------------|--------9--------9--------|
-----3-----3-----3-----5--|--L-----7--------7--------|
-----3-----3-----3-----5--|--L--x--------x-----x--x--|
--3--------3-----3-----5--|--L-----------------------|


  E  E  E  E  E   E  E  E     Q    E  E  E  E  E  E   
---------------------------|-------------------------|
---------------------------|-------------------------|
--9-----9-----9s--7--------|-------7--------7--------|
--7-----7-----7s--5--------|-------5--------5--------|
-----x-----x---------------|----------x--x-----x--x--|
---------------------0--3--|--L----------------------|


                                  PM PM PM PM PM PM  
  E  E  E  E  E  E  E  E     Q    E  E  E  E  E  E   
--------------------------|-------------------------|
-----------------------3--|--L----------------------|
--7-----7-----5--5-----2--|--L----------------------|
--5-----5-----3--3-----0--|--L----7--7--7--7--7--7--|
--------------------------|-------5--5--5--5--5--5--|
--------------------0-----|-------0--0--0--0--0--0--|


  PM PM PM PM PM PM                PM PM PM PM PM PM  
  E  E  E  E  E  E   E  E     Q    E  E  E  E  E  E   
---------------------------|-------------------------|
---------------------------|-------------------------|
---------------------------|-------------------------|
--7--7--7--7--7--7s--5-----|-------------------------|
--5--5--5--5--5--5s--3--3--|--3----3--3--3--3--3--3--|
--0--0--0--0--0---------3--|--3----3--3--3--3--3--3--|


  E  E  E  E  E  E  E  E     E  E  E  E  E  E  E  E   
--------------------------|--------------------------|
--------------------------|--------------------------|
--------------------------|--------------------------|
-----3--------------------|--------7-----5-----------|
-----3-----3-----3--------|--------5-----3-----------|
--3--------3-----3-----0--|--L--0-----0-----0--0--0--|


  E  E  E  E  E  E  E  E     E  E  E  E  E  E  E  E         
--------------------------|--------------------------|-----|
--------------------------|--------------------------|-----|
--------------------------|--------------------------|-----|
--5--------5--------7-----|--5-----------5--------5--|-----|
--3--------3--------5-----|--3-----------3--------3--|-----|
-----0--0-----0--0-----0--|-----0--0--0-----0--0-----|-----|


   E    E     E     E    E     E    E     E    
--15b---Lpb--15pb--15b--15pb--15b--15pb--15b--|
----------------------------------------------|
----------------------------------------------|
----------------------------------------------|
----------------------------------------------|
----------------------------------------------|


   E     E    E     E    E     E      E   E   
--15pb--15b--15pb--15b---Lpb---Lpbr--13------|
-----------------------------------------15--|
---------------------------------------------|
---------------------------------------------|
---------------------------------------------|
---------------------------------------------|


   E    E   E    E   E   Q      E      H           W                 
-----------------------------------|------------|-------------------|
--15\------------------------------|------------|-------------------|
-----------10b------12--10b--------|------------|-------------------|
-------12-------12-------------12--|---L--------|-------------------|
-----------------------------------|------------|--3----------------|
-----------------------------------|------------|--3----------------|


  H        E  E  E  E      W                   Q    Q    E  E  E  E   
------------------------|-------------------|------------------------|
------------------------|-------------------|------------------------|
--------------7-----7s--|--5----------------|--L---------------------|
--------------5-----5s--|--3----------------|--L---------------------|
--L---------------------|-------------------|------------3-----------|
--L---------------------|-------------------|------------3--2--1--0--|


  E  E  E  E  E  E  E  E     E  E  E  E  E  E  E  E   
--------------------------|--------------------------|
--------------------------|--------------------------|
--------------------------|--------------------------|
--------7-----5-----------|--5--------5--------7-----|
--------5-----3-----------|--3--------3--------5-----|
--0--0-----0-----0--0--0--|-----0--0-----0--0-----0--|


  E  E  E  E  E  E  E  E     E  E  Q       W                 
--------------------------|-------------|-------------------|
--------------------------|-------------|-------------------|
--------------------------|-------------|-------------------|
--5-----------5--------5--|--------2----|-------------------|
--3-----------3--------3--|--------0----|--3----------------|
-----0--0--0-----0--0-----|--0--0-------|--3----------------|


  H        E  E  E  E      W                   Q    Q    E  E  E  E   
------------------------|-------------------|------------------------|
------------------------|-------------------|------------------------|
--------------7-----7s--|--5----------------|--L---------------------|
--------------5-----5s--|--3----------------|--L---------------------|
--L---------------------|-------------------|------------3-----------|
--L---------------------|-------------------|------------3--2--1--0--|


  E  E  E  E  E  E  E  E     E  E  E  E  E  E  E  E   
--------------------------|--------------------------|
--------------------------|--------------------------|
--------------------------|--------------------------|
--------7-----5-----------|--5--------5--------7-----|
--------5-----3-----------|--3--------3--------5-----|
--0--0-----0-----0--0--0--|-----0--0-----0--0-----0--|


  E  E  E  E  E  E  E  E     E  E  Q       Q    E  E  E  E  E  E   
--------------------------|-------------|-------------------------|
--------------------------|-------------|-------------------------|
--------------------------|-------------|----------------9--------|
--5-----------5--------5--|--------2----|----------------7--------|
--3-----------3--------3--|--------0----|--5----------------x--x--|
-----0--0--0-----0--0-----|--0--0-------|--5----5--5--5-----------|


  E  E  E  E  E   E  E  E     Q    E  E  E  E  E  E   
---------------------------|-------------------------|
---------------------------|-------------------------|
--9-----9-----9s--7--------|-------7--------7--------|
--7-----7-----7s--5--------|-------5--------5--------|
-----x-----x---------------|----------x--x-----x--x--|
---------------------0--3--|--L----------------------|


                                  PM PM PM PM PM PM  
  E  E  E  E  E  E  E  E     Q    E  E  E  E  E  E   
--------------------------|-------------------------|
-----------------------3--|--L----------------------|
--7-----7-----5--5-----2--|--L----------------------|
--5-----5-----3--3-----0--|--L----7--7--7--7--7--7--|
--------------------------|-------5--5--5--5--5--5--|
--------------------0-----|-------0--0--0--0--0--0--|


  PM PM PM PM PM PM                PM PM PM PM PM PM  
  E  E  E  E  E  E   E  E     Q    E  E  E  E  E  E   
---------------------------|-------------------------|
---------------------------|-------------------------|
---------------------------|-------------------------|
--7--7--7--7--7--7s--5-----|-------------------------|
--5--5--5--5--5--5s--3--3--|--3----3--3--3--3--3--3--|
--0--0--0--0--0---------3--|--3----3--3--3--3--3--3--|


  E  E  E  E  E  E  E  E     E  E  E  E  E  E  E  E   
--------------------------|--------------------------|
--------------------------|--------------------------|
--------------------------|--------9--------9--------|
-----3-----3-----3-----5--|--L-----7--------7--------|
-----3-----3-----3-----5--|--L--x--------x-----x--x--|
--3--------3-----3-----5--|--L-----------------------|


  E  E  E  E  E   E  E  E     Q    E  E  E  E  E  E   
---------------------------|-------------------------|
---------------------------|-------------------------|
--9-----9-----9s--7--------|-------7--------7--------|
--7-----7-----7s--5--------|-------5--------5--------|
-----x-----x---------------|----------x--x-----x--x--|
---------------------0--3--|--L----------------------|


                                  PM PM PM PM PM PM  
  E  E  E  E  E  E  E  E     Q    E  E  E  E  E  E   
--------------------------|-------------------------|
-----------------------3--|--L----------------------|
--7-----7-----5--5-----2--|--L----------------------|
--5-----5-----3--3-----0--|--L----7--7--7--7--7--7--|
--------------------------|-------5--5--5--5--5--5--|
--------------------0-----|-------0--0--0--0--0--0--|


  PM PM PM PM PM PM                PM PM PM PM PM PM  
  E  E  E  E  E  E   E  E     Q    E  E  E  E  E  E   
---------------------------|-------------------------|
---------------------------|-------------------------|
---------------------------|-------------------------|
--7--7--7--7--7--7s--5-----|-------------------------|
--5--5--5--5--5--5s--3--3--|--3----3--3--3--3--3--3--|
--0--0--0--0--0---------3--|--3----3--3--3--3--3--3--|


  E  E  E  E  E  E  E  E     E  E  E  E  E  E  E  E   
--------------------------|--------------------------|
--------------------------|--------------------------|
--------------------------|--------------------------|
-----3--------------------|--------7-----5-----------|
-----3-----3-----3--------|--------5-----3-----------|
--3--------3-----3-----0--|--0--0-----0-----0--0--0--|


  E  E  E  E  E  E  E  E     E  E  E  E  E  E  E  E     E  E  Q     
--------------------------|--------------------------|-------------|
--------------------------|--------------------------|-------------|
--------------------------|--------------------------|-------------|
--5--------5--------7-----|--5-----------5--------5--|--------2----|
--3--------3--------5-----|--3-----------3--------3--|--------0----|
-----0--0-----0--0-----0--|-----0--0--0-----0--0-----|--0--0-------|


  E  E  E  E  E  E  E  E     E  E  E  E  E  E  E  E   
--------------------------|--------------------------|
--------------------------|--------------------------|
--------------------------|--------------------------|
--------7-----5-----------|--5--------5--------7-----|
--------5-----3-----------|--3--------3--------5-----|
--0--0-----0-----0--0--0--|-----0--0-----0--0-----0--|


  E  E  E  E  E  E  E  E     E  E  Q       E  E  E  E  E  E  E  E   
--------------------------|-------------|--------------------------|
--------------------------|-------------|--------------------------|
--------------------------|-------------|--------------------------|
--5-----------5--------5--|--------2----|--------7-----5-----------|
--3-----------3--------3--|--------0----|--------5-----3-----------|
-----0--0--0-----0--0-----|--0--0-------|--0--0-----0-----0--0--0--|


  E  E  E  E  E  E  E  E     E  E  E  E  E  E  E  E     E  E  Q     
--------------------------|--------------------------|-------------|
--------------------------|--------------------------|-------------|
--------------------------|--------------------------|-------------|
--5--------5--------7-----|--5-----------5--------5--|--------2----|
--3--------3--------5-----|--3-----------3--------3--|--------0----|
-----0--0-----0--0-----0--|-----0--0--0-----0--0-----|--0--0-------|


  E  E  E  E  E  E  E  E     E  E  E  E  E  E  E  E   
--------------------------|--------------------------|
--------------------------|--------------------------|
--------------------------|--------------------------|
--------7-----5-----------|--5--------5--------7-----|
--------5-----3-----------|--3--------3--------5-----|
--0--0-----0-----0--0--0--|-----0--0-----0--0-----0--|


  E  E  E  E  E  E  E  E     E  E  Q       E  E  E  E  E  E  E  E   
--------------------------|-------------|--------------------------|
--------------------------|-------------|--------------------------|
--------------------------|-------------|--------------------------|
--5-----------5--------5--|--------2----|--------7-----5-----------|
--3-----------3--------3--|--------0----|--------5-----3-----------|
-----0--0--0-----0--0-----|--0--0-------|--0--0-----0-----0--0--0--|


  E  E  E  E  E  E  E  E     E  E  E  E  E  E  E  E     E  E  Q     
--------------------------|--------------------------|-------------|
--------------------------|--------------------------|-------------|
--------------------------|--------------------------|-------------|
--5--------5--------7-----|--5-----------5--------5--|--------2----|
--3--------3--------5-----|--3-----------3--------3--|--------0----|
-----0--0-----0--0-----0--|-----0--0--0-----0--0-----|--0--0-------|


  E  E  E  E  E  E  E  E     E  E  E  E  E  E  E  E   
--------------------------|--------------------------|
--------------------------|--------------------------|
--------------------------|--------------------------|
--------7-----5-----------|--5--------5--------7-----|
--------5-----3-----------|--3--------3--------5-----|
--0--0-----0-----0--0--0--|-----0--0-----0--0-----0--|


  E  E  E  E  E  E  E  E     E  E  Q       E  E  E  E  E  E  E  E   
--------------------------|-------------|--------------------------|
--------------------------|-------------|--------------------------|
--------------------------|-------------|--------------------------|
--5-----------5--------5--|--------2----|--------7-----5-----------|
--3-----------3--------3--|--------0----|--------5-----3-----------|
-----0--0--0-----0--0-----|--0--0-------|--0--0-----0-----0--0--0--|


  E  E  E  E  E  E  E  E     E  E  E  E  E  E  E  E     E  E  Q     
--------------------------|--------------------------|-------------|
--------------------------|--------------------------|-------------|
--------------------------|--------------------------|-------------|
--5--------5--------7-----|--5-----------5--------5--|--------2----|
--3--------3--------5-----|--3-----------3--------3--|--------0----|
-----0--0-----0--0-----0--|-----0--0--0-----0--0-----|--0--0-------|


  E  E  E  E  E  E  E  E     E  E  E  E  E  E  E  E   
--------------------------|--------------------------|
--------------------------|--------------------------|
--------------------------|--------------------------|
--------7-----5-----------|--5--------5--------7-----|
--------5-----3-----------|--3--------3--------5-----|
--0--0-----0-----0--0--0--|-----0--0-----0--0-----0--|


  E  E  E  E  E  E  E  E     E  E  Q       E  E  E  E  E  E  E  E   
--------------------------|-------------|--------------------------|
--------------------------|-------------|--------------------------|
--------------------------|-------------|--------------------------|
--5-----------5--------5--|--------2----|--------7-----5-----------|
--3-----------3--------3--|--------0----|--------5-----3-----------|
-----0--0--0-----0--0-----|--0--0-------|--0--0-----0-----0--0--0--|


  E  E  E  E  E  E  E  E     E  E  E  E  E  E  E  E     E  E  Q     
--------------------------|--------------------------|-------------|
--------------------------|--------------------------|-------------|
--------------------------|--------------------------|-------------|
--5--------5--------7-----|--5-----------5--------5--|--------2----|
--3--------3--------5-----|--3-----------3--------3--|--------0----|
-----0--0-----0--0-----0--|-----0--0--0-----0--0-----|--0--0-------|


  E  E  E  E  E  E  E  E     E  E  E  E  E  E  E  E   
--------------------------|--------------------------|
--------------------------|--------------------------|
--------------------------|--------------------------|
--------7-----5-----------|--5--------5--------7-----|
--------5-----3-----------|--3--------3--------5-----|
--0--0-----0-----0--0--0--|-----0--0-----0--0-----0--|


  E  E  E  E  E  E  E  E     E  E  Q      
--------------------------|-------------||
--------------------------|-------------||
--------------------------|-------------||
--5-----------5--------5--|--------2----||
--3-----------3--------3--|--------0----||
-----0--0--0-----0--0-----|--0--0-------||




=============================================================================


Guitar 2



     W                   W                   W                 
E||-------------------|-------------------|-------------------|
B||-------------------|-------------------|-------------------|
G||-------------------|-------------------|-------------------|
D||-------------------|-------------------|-------------------|
A||-------------------|-------------------|-------------------|
D||-------------------|-------------------|-------------------|


-------------------|-------------------|-------------------|----------------|
-------------------|-------------------|-------------------|----------------|
-------------------|-------------------|-------------------|----------------|
-------------------|-------------------|-------------------|----------------|
-------------------|-------------------|-------------------|----------------|
-------------------|-------------------|-------------------|----------------|


                                          E  E  E  E  E  E  E  E   
-------------------|-------------------|--------------------------|
-------------------|-------------------|--------------------------|
-------------------|-------------------|--------------------------|
-------------------|-------------------|--------7-----5-----------|
-------------------|-------------------|--------5-----3-----------|
-------------------|-------------------|--0--0-----0-----0--0--0--|


  E  E  E  E  E  E  E  E     E  E  E  E  E  E  E  E     E  E  Q     
--------------------------|--------------------------|-------------|
--------------------------|--------------------------|-------------|
--------------------------|--------------------------|-------------|
--5--------5--------7-----|--5-----------5--------5--|--------2----|
--3--------3--------5-----|--3-----------3--------3--|--------0----|
-----0--0-----0--0-----0--|-----0--0--0-----0--0-----|--0--0-------|


  E  E  E  E  E  E  E  E     E  E  E  E  E  E  E  E   
--------------------------|--------------------------|
--------------------------|--------------------------|
--------------------------|--------------------------|
--------7-----5-----------|--5--------5--------7-----|
--------5-----3-----------|--3--------3--------5-----|
--0--0-----0-----0--0--0--|-----0--0-----0--0-----0--|


                                                       PM PM PM  
  E  E  E  E  E  E  E  E     E  E  Q       H        E  E  E  E   
--------------------------|-------------|-----------------------|
--------------------------|-------------|-----------------------|
--------------------------|-------------|-----------------------|
--5-----------5--------5--|--------2----|-----------------------|
--3-----------3--------3--|--------0----|--3--------L--3--3--3--|
-----0--0--0-----0--0-----|--0--0-------|--3--------L--3--3--3--|


  PM PM PM PM PM PM PM PM    PM PM PM PM PM PM PM PM  
  E  E  E  E  E  E  E  E     E  E  E  E  E  E  E  E   
--------------------------|--------------------------|
--------------------------|--------------------------|
--------------------------|--------------------------|
--------------------------|--------------------------|
--3--3--3--3--3--3--3--3--|--3--3--3--3--3--3--3--3--|
--3--3--3--3--3--3--3--3--|--3--3--3--3--3--3--3--3--|


  PM PM PM                                            
  E  E  E  E  E  E  E  E     E  E  E  E  E  E  E  E   
--------------------------|--------------------------|
--------------------------|--------------------------|
--------------------------|--------------------------|
--------------------------|--------7-----5-----------|
--3--3--3-----3-----------|--------5-----3-----------|
--3--3--3-----3--2--1--0--|--0--0-----0-----0--0--0--|


  E  E  E  E  E  E  E  E     E  E  E  E  E  E  E  E     E  E  Q     
--------------------------|--------------------------|-------------|
--------------------------|--------------------------|-------------|
--------------------------|--------------------------|-------------|
--5--------5--------7-----|--5-----------5--------5--|--------2----|
--3--------3--------5-----|--3-----------3--------3--|--------0----|
-----0--0-----0--0-----0--|-----0--0--0-----0--0-----|--0--0-------|


                PM PM    PM PM PM PM PM PM PM PM    PM PM PM PM PM      PM PM 

 
  H        Q    E  E     E  E  E  E  E  E  E  E     E  E  E  E  E    E  E  E  

 
----------------------|--------------------------|--------------------------|
----------------------|--------------------------|--------------------------|
----------------------|--------------------------|--------------------------|
----------------------|--------------------------|-----------------<>5------|
--3--------L----3--3--|--3--3--3--3--3--3--3--3--|--3--3--3--3--3-------3--3|
--3--------L----3--3--|--3--3--3--3--3--3--3--3--|--3--3--3--3--3-------3--3|


     PM                                               
  E  E  E  E  E  E  E  E     E  E  E  E  E  E  E  E   
--------------------------|--------------------------|
--------------------------|--------------------------|
--5-----5-----5-----------|--------------------------|
--5-----5-----5-----------|--------7-----5-----------|
--3--3--3-----3-----------|--------5-----3-----------|
--3--3--3-----3--2--1--0--|--0--0-----0-----0--0--0--|


  E  E  E  E  E  E  E  E     E  E  E  E  E  E  E  E     E  E  Q     
--------------------------|--------------------------|-------------|
--------------------------|--------------------------|-------------|
--------------------------|--------------------------|-------------|
--5--------5--------7-----|--5-----------5--------5--|--------2----|
--3--------3--------5-----|--3-----------3--------3--|--------0----|
-----0--0-----0--0-----0--|-----0--0--0-----0--0-----|--0--0-------|


              PM PM PM    PM PM PM PM PM PM PM PM    PM PM PM PM PM PM PM PM  
  H        E  E  E  E     E  E  E  E  E  E  E  E     E  E  E  E  E  E  E  E   
-----------------------|--------------------------|-------------------------|
-----------------------|--------------------------|-------------------------|
-----------------------|--------------------------|-------------------------|
-----------------------|--------------------------|-------------------------|
--3--------L--3--3--3--|--3--3--3--3--3--3--3--3--|--3--3--3--3--3--3--3--3-|
--3--------L--3--3--3--|--3--3--3--3--3--3--3--3--|--3--3--3--3--3--3--3--3-|


  PM PM PM                                            
  E  E  E  E  E  E  E  E     E  E  E  E  E  E  E  E   
--------------------------|--------------------------|
--------------------------|--------------------------|
--------------------------|--------------------------|
--------------------------|--------7-----5-----------|
--3--3--3-----3-----------|--------5-----3-----------|
--3--3--3-----3--2--1--0--|--0--0-----0-----0--0--0--|


  E  E  E  E  E  E  E  E     E  E  E  E  E  E  E  E     E  E  Q     
--------------------------|--------------------------|-------------|
--------------------------|--------------------------|-------------|
--------------------------|--------------------------|-------------|
--5--------5--------7-----|--5-----------5--------5--|--------2----|
--3--------3--------5-----|--3-----------3--------3--|--------0----|
-----0--0-----0--0-----0--|-----0--0--0-----0--0-----|--0--0-------|


              PM PM PM    PM PM PM PM PM PM PM PM    PM PM PM PM PM PM PM PM  
  H        E  E  E  E     E  E  E  E  E  E  E  E     E  E  E  E  E  E  E  E   
-----------------------|--------------------------|------------------------|
-----------------------|--------------------------|------------------------|
-----------------------|--------------------------|------------------------|
-----------------------|--------------------------|------------------------|
--3--------L--3--3--3--|--3--3--3--3--3--3--3--3--|--3--3--3--3--3--3--3--3|
--3--------L--3--3--3--|--3--3--3--3--3--3--3--3--|--3--3--3--3--3--3--3--3|


  PM PM PM                                            
  E  E  E  E  E  E  E  E     E  E  E  E  E  E  E  E   
--------------------------|--------------------------|
--------------------------|--------------------------|
--------------------------|--------------------------|
--------------------------|--------7-----5-----------|
--3--3--3-----3-----------|--------5-----3-----------|
--3--3--3-----3--2--1--0--|--0--0-----0-----0--0--0--|


  E  E  E  E  E  E  E  E     E  E  E  E  E  E  E  E     E  E  Q     
--------------------------|--------------------------|-------------|
--------------------------|--------------------------|-------------|
--------------------------|--------------------------|-------------|
--5--------5--------7-----|--5-----------5--------5--|--------2----|
--3--------3--------5-----|--3-----------3--------3--|--------0----|
-----0--0-----0--0-----0--|-----0--0--0-----0--0-----|--0--0-------|


  W                   H.           E  E     W                 
-------------------|---------------------|-------------------|
-------------------|---------------------|-------------------|
-------------------|---------------------|-------------------|
--5----------------|--L---------------3--|--L----------------|
--5----------------|--L---------------3--|--L----------------|
--5----------------|--L---------------3--|--L----------------|


  H.           E  E     W                   H.           E  E   
---------------------|-------------------|---------------------|
------------------3--|--L----------------|--L------------------|
------------------2--|--L----------------|--L------------------|
--L---------------0--|--L----------------|--L---------------3--|
--L------------------|-------------------|------------------3--|
--L------------0-----|-------------------|------------------3--|


  W                   E  E  E  E  E  E  E  E     W                 
-------------------|--------------------------|-------------------|
-------------------|--------------------------|-------------------|
-------------------|--------------------------|-------------------|
--L----------------|-----3-----3-----3-----5--|--L----------------|
--L----------------|-----3-----3-----3-----5--|--L----------------|
--L----------------|--3--------3-----3-----5--|--L----------------|


  H.           E  E     W                   H.           E  E   
---------------------|-------------------|---------------------|
---------------------|-------------------|------------------3--|
---------------------|-------------------|------------------2--|
--L---------------3--|--L----------------|--L---------------0--|
--L---------------3--|--L----------------|--L------------------|
--L---------------3--|--L----------------|--L------------0-----|


                      PM       PM PM                             
  W                   H        E  E   E  E     W                 
-------------------|------------------------|-------------------|
--L----------------|--L---------------------|-------------------|
--L----------------|--L---------------------|-------------------|
--L----------------|--L-----------7s--5-----|-------------------|
-------------------|-----------0--5s--3--3--|--3----------------|
-------------------|-----------0---------3--|--3----------------|


  E  E  E  E  E  E  E  E     E  H.           E                     
--------------------------|---------------------|-----|-----|-----|
--------------------------|---------------------|-----|-----|-----|
--------------------------|---------------------|-----|-----|-----|
-----3--------------------|---------------------|-----|-----|-----|
-----3-----3-----3--------|---------------------|-----|-----|-----|
--3--------3-----3-----0--|--L------------------|-----|-----|-----|


  E  E  E  E  E  E  E  E     E  E  E  E  E  E  E  E   
--------------------------|--------------------------|
--------------------------|--------------------------|
--------------------------|--------------------------|
--------7-----5-----------|--5--------5--------7-----|
--------5-----3-----------|--3--------3--------5-----|
--0--0-----0-----0--0--0--|-----0--0-----0--0-----0--|


                                                       PM PM PM  
  E  E  E  E  E  E  E  E     E  E  Q       H        E  E  E  E   
--------------------------|-------------|-----------------------|
--------------------------|-------------|-----------------------|
--------------------------|-------------|-----------------------|
--5-----------5--------5--|--------2----|-----------------------|
--3-----------3--------3--|--------0----|--3--------L--3--3--3--|
-----0--0--0-----0--0-----|--0--0-------|--3--------L--3--3--3--|


  PM PM PM PM PM PM PM PM    PM PM PM PM PM PM PM PM  
  E  E  E  E  E  E  E  E     E  E  E  E  E  E  E  E   
--------------------------|--------------------------|
--------------------------|--------------------------|
--------------------------|--------------------------|
--------------------------|--------------------------|
--3--3--3--3--3--3--3--3--|--3--3--3--3--3--3--3--3--|
--3--3--3--3--3--3--3--3--|--3--3--3--3--3--3--3--3--|


  PM PM PM                                            
  E  E  E  E  E  E  E  E     E  E  E  E  E  E  E  E   
--------------------------|--------------------------|
--------------------------|--------------------------|
--------------------------|--------------------------|
--------------------------|--------7-----5-----------|
--3--3--3-----3-----------|--------5-----3-----------|
--3--3--3-----3--2--1--0--|--0--0-----0-----0--0--0--|


  E  E  E  E  E  E  E  E     E  E  E  E  E  E  E  E     E  E  Q     
--------------------------|--------------------------|-------------|
--------------------------|--------------------------|-------------|
--------------------------|--------------------------|-------------|
--5--------5--------7-----|--5-----------5--------5--|--------2----|
--3--------3--------5-----|--3-----------3--------3--|--------0----|
-----0--0-----0--0-----0--|-----0--0--0-----0--0-----|--0--0-------|


              PM PM PM    PM PM PM PM PM PM PM PM    PM PM PM PM PM PM PM PM  
  H        E  E  E  E     E  E  E  E  E  E  E  E     E  E  E  E  E  E  E  E   
-----------------------|--------------------------|-------------------------|
-----------------------|--------------------------|-------------------------|
-----------------------|--------------------------|-------------------------|
-----------------------|--------------------------|-------------------------|
--3--------L--3--3--3--|--3--3--3--3--3--3--3--3--|--3--3--3--3--3--3--3--3-|
--3--------L--3--3--3--|--3--3--3--3--3--3--3--3--|--3--3--3--3--3--3--3--3-|


  PM PM PM                                            
  E  E  E  E  E  E  E  E     E  E  E  E  E  E  E  E   
--------------------------|--------------------------|
--------------------------|--------------------------|
--------------------------|--------------------------|
--------------------------|--------7-----5-----------|
--3--3--3-----3-----------|--------5-----3-----------|
--3--3--3-----3--2--1--0--|--0--0-----0-----0--0--0--|


  E  E  E  E  E  E  E  E     E  E  E  E  E  E  E  E     E  E  Q     
--------------------------|--------------------------|-------------|
--------------------------|--------------------------|-------------|
--------------------------|--------------------------|-------------|
--5--------5--------7-----|--5-----------5--------5--|--------2----|
--3--------3--------5-----|--3-----------3--------3--|--------0----|
-----0--0-----0--0-----0--|-----0--0--0-----0--0-----|--0--0-------|


       PM PM PM PM PM PM    PM PM PM PM PM PM               PM PM PM PM PM PM 

 
  Q    E  E  E  E  E  E     E  E  E  E  E  E  E  E     Q    E  E  E  E  E  E  

 
-------------------------|--------------------------|-----------------------|
-------------------------|--------------------------|-----------------------|
-------------------------|--------------------------|-----------------------|
-------------------------|--------------------------|-----------------------|
--5----------------------|--------------------------|-----------------------|
--5----5--5--5--5--5--5--|--5--5--5--5--5--5--0--3--|--L----3--3--3--3--3--3|


  PM PM PM PM PM PM               PM PM PM PM PM PM    PM PM PM PM PM PM PM   

  
  E  E  E  E  E  E  E  E     Q    E  E  E  E  E  E     E  E  E  E  E  E  E  E 

  
--------------------------|-------------------------|-----------------------|
-----------------------3--|--3----------------------|-----------------------|
-----------------------2--|--2----------------------|-----------------------|
-----------------------0--|--0----------------------|-----------------------|
--------------------------|-------0--0--0--0--0--0--|--0--0--0--0--0--0--0-3|
--3--3--3--3--3--3--0-----|-------0--0--0--0--0--0--|--0--0--0--0--0--0--0-3|


       PM PM PM PM PM PM                                    PM PM PM PM PM PM 

 
  Q    E  E  E  E  E  E     E  E  E  E  E  E  E  E     Q    E  E  E  E  E  E  

 
-------------------------|--------------------------|-----------------------|
-------------------------|--------------------------|-----------------------|
-------------------------|--------------------------|-----------------------|
-------------------------|-----3-----3-----3-----5--|-----------------------|
--3----3--3--3--3--3--3--|-----3-----3-----3-----5--|--5--------------------|
--3----3--3--3--3--3--3--|--3--------3-----3-----5--|--5----5--5--5--5--5--5|


  PM PM PM PM PM PM               PM PM PM PM PM PM    PM PM PM PM PM PM      

  
  E  E  E  E  E  E  E  E     Q    E  E  E  E  E  E     E  E  E  E  E  E  E  E 

  
--------------------------|-------------------------|-----------------------|
--------------------------|-------------------------|----------------------3|
--------------------------|-------------------------|----------------------2|
--------------------------|-------------------------|----------------------0|
--------------------------|-------------------------|-----------------------|
--5--5--5--5--5--5--0--3--|--L----3--3--3--3--3--3--|--3--3--3--3--3--3--0--|


       PM PM PM PM PM PM    PM PM PM PM PM PM                PM PM PM PM PM 

PM  
  Q    E  E  E  E  E  E     E  E  E  E  E  E   E  E     Q    E  E  E  E  E  E 

  
-----------------------|---------------------------|------------------------|
L----------------------|---------------------------|------------------------|
L----------------------|---------------------------|------------------------|
L----------------------|-----------------7s--5-----|------------------------|
-----5--5--5--5--5--5--|--5--5--5--5--5--5s--3--3--|--3----3--3--3--3--3--3-|
-----0--0--0--0--0--0--|--0--0--0--0--0---------3--|--3----3--3--3--3--3--3-|


  E  E  E  E  E  E  E  E     E  E  E  E  E  E  E  E   
--------------------------|--------------------------|
--------------------------|--------------------------|
--------------------------|--------------------------|
-----3--------------------|--------7-----5-----------|
-----3-----3-----3--------|--------5-----3-----------|
--3--------3-----3-----0--|--0--0-----0-----0--0--0--|


  E  E  E  E  E  E  E  E     E  E  E  E  E  E  E  E     E  E  Q     
--------------------------|--------------------------|-------------|
--------------------------|--------------------------|-------------|
--------------------------|--------------------------|-------------|
--5--------5--------7-----|--5-----------5--------5--|--------2----|
--3--------3--------5-----|--3-----------3--------3--|--------0----|
-----0--0-----0--0-----0--|-----0--0--0-----0--0-----|--0--0-------|


  E  E  E  E  E  E  E  E     E  E  E  E  E  E  E  E   
--------------------------|--------------------------|
--------------------------|--------------------------|
--------------------------|--------------------------|
--------7-----5-----------|--5--------5--------7-----|
--------5-----3-----------|--3--------3--------5-----|
--0--0-----0-----0--0--0--|-----0--0-----0--0-----0--|


  E  E  E  E  E  E  E  E     E  E  Q       E  E  E  E  E  E  E  E   
--------------------------|-------------|--------------------------|
--------------------------|-------------|--------------------------|
--------------------------|-------------|--------------------------|
--5-----------5--------5--|--------2----|--------7-----5-----------|
--3-----------3--------3--|--------0----|--------5-----3-----------|
-----0--0--0-----0--0-----|--0--0-------|--0--0-----0-----0--0--0--|


  E  E  E  E  E  E  E  E     E  E  E  E  E  E  E  E     E  E  Q     
--------------------------|--------------------------|-------------|
--------------------------|--------------------------|-------------|
--------------------------|--------------------------|-------------|
--5--------5--------7-----|--5-----------5--------5--|--------2----|
--3--------3--------5-----|--3-----------3--------3--|--------0----|
-----0--0-----0--0-----0--|-----0--0--0-----0--0-----|--0--0-------|


  E  E  E  E  E  E  E  E     E  E  E  E  E  E  E  E   
--------------------------|--------------------------|
--------------------------|--------------------------|
--------------------------|--------------------------|
--------7-----5-----------|--5--------5--------7-----|
--------5-----3-----------|--3--------3--------5-----|
--0--0-----0-----0--0--0--|-----0--0-----0--0-----0--|


  E  E  E  E  E  E  E  E     E  E  Q       Q    H.             
--------------------------|-------------|---------------------|
--------------------------|-------------|--3----3~------------|
--------------------------|-------------|---------------------|
--5-----------5--------5--|--------2----|---------------------|
--3-----------3--------3--|--------0----|---------------------|
-----0--0--0-----0--0-----|--0--0-------|---------------------|


                                       TH             TH        
  Q     E  E  E   Q.        H          H              H         
-------------------------|-----------------------|-------------|
--6b----3--3--6b--3------|--3--------<>3~--------|--<>L--------|
-------------------------|-----------------------|-------------|
-------------------------|-----------------------|-------------|
-------------------------|-----------------------|-------------|
-------------------------|-----------------------|-------------|


                                                   TH                  
  H         E  E  Q       H        E  E  Q         H.           Q      
-----------------------|----------------------|-----------------------|
--3~--------6--3--3----|--3--------6--3--3----|--<>3------------------|
-----------------------|----------------------|-----------------------|
-----------------------|----------------------|-----------------3b----|
-----------------------|----------------------|-----------------------|
-----------------------|----------------------|-----------------------|


  Q      Q       H        E  E  E  E     Q.     H         E    
--------------|-----------------------|-----------------------|
--------------|-----------------------|-----------------------|
--------------|-----------------------|-----------------------|
--Lpb----0----|--L--------3--0-----0--|--0------5b--------5b--|
--------------|-----------------3-----|-----------------------|
--------------|-----------------------|-----------------------|


  Q      E  Q.      E  E      Q      Q        H         Q.      E   
---------------------------|--------------|------------------------|
---------------------------|--------------|--15--------15------15--|
---------------------------|--------------|------------------------|
--Lpb----3--5b------3--5b--|--Lpb---------|------------------------|
---------------------------|--------------|------------------------|
---------------------------|--------------|------------------------|


   E   E   Q      Q      E   E      Q      E    E    E    E    E    E    
----------13b----13b--------13--|--15b----15b--15b--15b--15b--15b--15b--|
--15--15----------------15------|---------------------------------------|
--------------------------------|---------------------------------------|
--------------------------------|---------------------------------------|
--------------------------------|---------------------------------------|
--------------------------------|---------------------------------------|


   E    E    E    E       Q     E   E   Q     Q        Q     Q     Q     Q    

 
--15b--15b--15b--15b--|--17b-------13--------------|------------------------|
----------------------|----------------15----15----|--15----15----15----15--|
----------------------|----------------------------|------------------------|
----------------------|----------------------------|------------------------|
----------------------|----------------------------|------------------------|
----------------------|----------------------------|------------------------|


                                                                       \1  
   Q     E  E    Q     Q        Q     Q        Q     E   E  E   Q      E   
------------8s--10----10----|--10----10----|--10----10\--------12b-----L--|
--15\----7--8s--10----------|--------------|-------------------12b-----L--|
----------------------------|--------------|-------------------12b-----L--|
----------------------------|--------------|------------------------------|
----------------------------|--------------|------------------------------|
----------------------------|--------------|------------------------------|


   E    E   E    H         E      E   E   H.               E   E   E   E    
------------------------------|------------------------|------------------||
--12b--10--12b----------------|------10--13------------|--13--13--13--13--||
--12b--10--12b--12--------12--|---L--------------------|------------------||
------------------------------|------------------------|------------------||
------------------------------|------------------------|------------------||
------------------------------|------------------------|------------------||




Duration Legend
---------------
W - whole
H - half
Q - quarter
E - 8th
S - 16th
T - 32nd
X - 64th
. - note dotted
|-n-|  - n-tuplets


Tablature Legend
----------------
L - tied note
x - dead note
g - grace note
(n) - ghost note
> - accentuded note
NH - natural harmonic
AH - artificial harmonic
TH - tapped harmonic
SH - semi harmonic
PH - pitch harmonic
h - hammer on
p - pull off
b - bend
br - bendRelease
pb - preBend
pbr - preBendRelease
brb - bendReleaseBend
\n/ - tremolo bar dip
\n - tremolo bar dive
-/n - tremolo bar Release up
/n\ - tremolo bar inverted dip
/n - tremolo bar return
-\n - tremolo bar Release down
S - shift slide
s - legato slide
/ -  slide into from below or out of upwards
\ -  slide into from above or out of downwards
~ - vibrato
W - wide vibrato
tr - trill
TP - tremolo picking
T - tapping
S - slap
P - pop
< - fade in
^ - brush up
v - brush down
Tap to rate this tab
# A B C D E F G H I J K L M N O P Q R S T U V W X Y Z