Song name
# A B C D E F G H I J K L M N O P Q R S T U V W X Y Z

Ratt - Lovin Yous A Dirty Job tab

                              Tabber: Unregistered
                                  Artist: Ratt
                          Song: Lovin You's A Dirty Job
                            Album: Ratt & Roll 81-91
   
   This song kicks ass! Probably no one will rate this, 'cause Ratt's really 
unpopular here, but whatever. Ratt & Roll!

e|--------------------------------------------------------------------------|
B|--11--11----------------------------------18-18---------------------------|
G|----------15--13--15--15--15---11h12--19---------12p10--------------------|
D|-------------------------------------------------------12p10--------------|
A|--------------------------------------------------------------10~~~~------|
E|--------------------------------------------------------------------------|

e|--------------------20--18----------|
B|--20~~~---18h20p18----------20~~~---|
G|------------------------------------|
D|------------------------------------|
A|------------------------------------|
E|------------------------------------|

Hey, I'm too lazy for the rest, maybe when I feel like Ratt needs some more tabs
out here I'll figure out the rest. Rock on!
Tap to rate this tab
# A B C D E F G H I J K L M N O P Q R S T U V W X Y Z