Song name
# A B C D E F G H I J K L M N O P Q R S T U V W X Y Z

Ratt - Youre In Love tab

Help us improve GuitareTab! Take a short survey!
Gtr I (D A D G B E)
Gtr II (D A D G B E) 

Intro
Moderate Rock Q=136
4/4
Gtr I
    PM|   PM----|     PM|   PM----|     PM|   PM----|
|-----------------|-----------------|------------------|
|-----------------|-----------------|------------------|
|-7-----7---------|-9-----5---------|-7-----7----------|
|-7-----7---------|-9-----5---------|-7-----7----------|
|-----------------|-----------------|------------------|
|---0-0---0-0-0-0-|---0-0---0-0-0-0-|---0-0---0-0-0-0--|


   PM|                         
|---------------------------||
|-------5--5h=6p==5---5-----||
|-2-----5--5---5--5---5-----||
|-2-----5--5---5--5---5-----||
|---------------------------||
|---0-0---------------------||



Verse

    PM|   PM----|     PM|   PM----|     PM|   PM----|
|-----------------|-----------------|------------------|
|-----------------|-----------------|------------------|
|-7-----7---------|-9-----5---------|-7-----7----------|
|-7-----7---------|-9-----5---------|-7-----7----------|
|-----------------|-----------------|------------------|
|---0-0---0-0-0-0-|---0-0---0-0-0-0-|---0-0---0-0-0-0--|


    PM|   PM----|     PM|              PM|   PM

|----------------|-----------------|
|----------------|-----------------|
|-2-----5-(5)----|-----------------|
|-2-----5-(5)----|-8-----8-----8---|
|----------------|-8-----8-----8---|
|---0-0----------|---8-8---8-8---8-|


|------------------|------------------|-----------------|
|------------------|------------------|-----------------|
|------------------|--------7---------|-9-----5---------|
|-10-----8-10--10--|-12-----7---------|-9-----5---------|
|-10-----8-10--10--|-12---------------|-----------------|
|----8-8---10--10--|-12-0-0---0-0-0-0-|---0-0---0-0-0-0-|


|-----------------|------------------------|
|-----------------|-------5--5h=6p==5---5--|
|-7-----7---------|-2-----5--5-(5)-(5)-(5)-|
|-7-----7---------|-2-----5--5-(5)-(5)-(5)-|
|-----------------|------------------------|
|---0-0---0-0-0-0-|---0-0------------------|





 Chorus
|-----------------|-----------------|-----------------|----------------|
|-----------------|-----------------|-----------------|----------------|
|-7-----7---------|-9-----5---------|-7-----7---------|-2-----5-(5)----|
|-7-----7---------|-9-----5---------|-7-----7---------|-2-----5-(5)----|
|-----------------|-----------------|-----------------|----------------|
|---0-0---0-0-0-0-|---0-0---0-0-0-0-|---0-0---0-0-0-0-|---0-0----------|


                                                        D.S. al Coda
|-----------------|-----------------|-----------------|----------------||
|-----------------|-----------------|-----------------|----------------||
|-7-----7---------|-9-----5---------|-7-----7---------|-2-----5-(5)----||
|-7-----7---------|-9-----5---------|-7-----7---------|-2-----5-(5)----||
|-----------------|-----------------|-----------------|----------------||
|---0-0---0-0-0-0-|---0-0---0-0-0-0-|---0-0---0-0-0-0-|---0-0----------||


 Guitar Solo
  &
            ~~~~
|-20b22r==(20)-----------|-(20)-------20----------------------------------|
|------------------------|------22p19----22p19----22p19-------19----------|
|------------------------|---------------------19-------19-------19-------|
|------------------------|---------------------------------22-------22p19-|
|------------------------|------------------------------------------------|
|------------------------|------------------------------------------------|


|----------------------------|
|----------------------------|
|-----------------------7b9==|
|------19------------10------|
|-22------21-(21)------------|
|----------------------------|

           ~~~~~~
|-------------------|-------------------------|
|-------------------|-------------------------|
|-7r---(9)-7-(7)----|-(7)-7----7-------7------|
|-------------------|-------10---10-10--------|
|-------------------|-------------------------|
|-------------------|-------------------------|

~~|
-----------------------------|---10-----(10)-(10)-10p8------8----------||
-----------------------------|-------------------------10p8---10p8h10--||
-(7)-7----7----7-10p9-7------|-----------------------------------------||
-------10---10---------------|-----------------------------------------||
-----------------------------|-----------------------------------------||
-----------------------------|-----------------------------------------||

-------------------------------------|---------------------------||
-8------8----------------------------|---------------------------||
---10p7---10-7---------------------7-|---------------------------||
---------------10-------------7-10---|-8-------(8)-8h10-8h10-7h8-||
------------------12s10--8h10--------|---------------------------||
-------------------------------------|---------------------------||

~~~~~~~~~~~~|
-------------------------------------------------|------------------------||
---------------------10b11-(10)-10b11-(10)-10b11-|-(10)-10------(10)-8---7||
--------------7-10p7-----------------------------|------------------------||
--8h10-7h8-10------------------------------------|------------------------||
-------------------------------------------------|------------------------||
-------------------------------------------------|------------------------||


-----------------|-------------------------------------||
-8---------------|-------------------------------------||
-----7-----------|-/15-------(15)-15h17p15-14----14h15-||
-----------------|----------------------------17-------||
-----------------|-------------------------------------||
-----------------|-------------------------------------||

------------------------------------|--------------------------||
----15h17p15-15h17-18-22-22b23r=====|=(22)-------(22)-20---19--||
-17---------------------------------|--------------------------||
------------------------------------|--------------------------||
------------------------------------|--------------------------||
------------------------------------|--------------------------||

-------------20b22====(20)r-------||----------------------|||
-19h20----19--------------------8-||o-(8)-10-----10----8-o|||
--------------------------------7-||--(7)--9------9----7--|||
--------------------------------5-||--(5)--7------7----5--|||
--------------------------------5-||o-(5)--7------7----5-o|||
--------------------------------5-||--(5)--7-7-7--7----5--|||



Related for Youre In Love tab