Song name
# A B C D E F G H I J K L M N O P Q R S T U V W X Y Z

Raubtier - Kamphund tab

    Kamphund                                     


                                                                        Raubtier
Guitar



INTRO
                       PM PM PM PM                      PM PM PM PM  
     E  E  E  E  E  E  S  S  S  S     E  E  E  E  E  E  S  S  S  S   
E||--------------------------------|--------------------------------|
B||--------------------------------|--------------------------------|
G||--------------------------------|--------------------------------|
D||--------------------------------|--------------------------------|
A||--7--6--7--6--7--6--------------|--7--6--7--6--7--6--------------|
E||--5--4--5--4--5--4--5--4--5--7--|--5--4--5--4--5--4--5--4--5--7--|


                    PM PM PM PM                                
                                                     |--3--|   
  E  E  E  E  E  E  S  S  S  S     E  E  E  E  E  E  E  E  E   
--------------------------------|-----------------------------|
--------------------------------|-----------------------------|
--------------------------------|-----------------------------|
--------------------------------|-----------------------------|
--7--6--7--6--7--6--------------|--7--6--7--6--7--6--7--7--7--|
--5--4--5--4--5--4--5--4--5--7--|--5--4--5--4--5--4--5--5--5--|


                    PM PM PM PM                      PM PM PM PM  
  E  E  E  E  E  E  S  S  S  S     E  E  E  E  E  E  S  S  S  S   
--------------------------------|--------------------------------|
--------------------------------|--------------------------------|
--------------------------------|--------------------------------|
--------------------------------|--------------------------------|
--7--6--7--6--7--6--------------|--7--6--7--6--7--6--------------|
--5--4--5--4--5--4--5--4--5--7--|--5--4--5--4--5--4--5--4--5--7--|


                    PM PM PM PM                       
  E  E  E  E  E  E  S  S  S  S     E  E  E  E  E  E   
--------------------------------|--------------------|
--------------------------------|--------------------|
--------------------------------|--------------------|
--------------------------------|--------------------|
--7--6--7--6--7--6--------------|--7--6--7--6--7--6--|
--5--4--5--4--5--4--5--4--5--7--|--5--4--5--4--5--4--|


  |--3--|  |--3--|  |--3--|  |--3--|   VERSE                                       
  E  E  E  E  E  E  E  E  E  E  E  E     W                   W                 
--------------------------------------|-------------------|-------------------|
--------------------------------------|-------------------|-------------------|
--------------------------------------|-------------------|-------------------|
--------------------------------------|-------------------|-------------------|
--7--7--7--7--7--7--7--7--7--7--7--7--|-------------------|-------------------|
--5--5--5--5--5--5--5--5--5--5--5--5--|-------------------|-------------------|


                                                                   PM PM PM PM  
  W                   E  E  E  E  E  E  E  E     E  E  E  E  E  E  S  S  S  S   
-------------------|--------------------------|--------------------------------|
-------------------|--------------------------|--------------------------------|
-------------------|--------------------------|--------------------------------|
-------------------|--------------------------|--------------------------------|
-------------------|--------------7-----------|--7--6--7--6--7--6--------------|
-------------------|--------------5-----------|--5--4--5--4--5--4--5--4--5--7--|


                    PM PM PM PM                      PM PM PM PM  
  E  E  E  E  E  E  S  S  S  S     E  E  E  E  E  E  S  S  S  S   
--------------------------------|--------------------------------|
--------------------------------|--------------------------------|
--------------------------------|--------------------------------|
--------------------------------|--------------------------------|
--7--6--7--6--7--6--------------|--7--6--7--6--7--6--------------|
--5--4--5--4--5--4--5--4--5--7--|--5--4--5--4--5--4--5--4--5--7--|


                       |--3--|  |--3--|  |--3--|  |--3--|                       
  E  E  E  E  E  E     E  E  E  E  E  E  E  E  E  E  E  E     W                 
--------------------|--------------------------------------|-------------------|
--------------------|--------------------------------------|-------------------|
--------------------|--------------------------------------|-------------------|
--------------------|--------------------------------------|-------------------|
--7--6--7--6--7--6--|--7--7--7--7--7--7--7--7--7--7--7--7--|-------------------|
--5--4--5--4--5--4--|--5--5--5--5--5--5--5--5--5--5--5--5--|-------------------|


  W                   W                   E  E  E  E  E  E  E  E   
-------------------|-------------------|--------------------------|
-------------------|-------------------|--------------------------|
-------------------|-------------------|--------------------------|
-------------------|-------------------|--------------------------|
-------------------|-------------------|--------------7-----------|
-------------------|-------------------|--------------5-----------|

CHORUS
  H        H           H        H           H        H         
--------------------|--------------------|--------------------|
--------------------|--------------------|--------------------|
--------------------|--------------------|--------------------|
-----------6--------|-----------8--------|-----------6--------|
--6--------4--------|--9--------6--------|--6--------4--------|
--4-----------------|--7-----------------|--4-----------------|


                 |--3--|                                      
  H        E  E  E  E  E     S S S S S S S S S S S S S S S S  
--------------------------|----------------------------------|
--------------------------|----------------------------------|
--------------------------|----------------------------------|
-----------8-----8--6-----|------------------6-6-6-6-6-6-6-6-|
--9--------6-----6--4--9--|--6-6-6-6-6-6-6-6-4-4-4-4-4-4-4-4-|
--7--------------------7--|--4-4-4-4-4-4-4-4-----------------|


  S S S S S S S S S S S S S S S S    S S S S S S S S S S S S S S S S  
----------------------------------|----------------------------------|
----------------------------------|----------------------------------|
----------------------------------|----------------------------------|
------------------8-8-8-8-8-8-8-8-|------------------6-6-6-6-6-6-6-6-|
--9-9-9-9-9-9-9-9-6-6-6-6-6-6-6-6-|--6-6-6-6-6-6-6-6-4-4-4-4-4-4-4-4-|
--7-7-7-7-7-7-7-7-----------------|--4-4-4-4-4-4-4-4-----------------|


                     |--3--|        |--3--|          
  S S S S S S S S    E  E  E  E  E  E  E  E  E   E   
------------------|-----------------------------23--|
------------------|---------------------------------|
------------------|---------------------------------|
------------------|-----------------8--8--8--8------|
--9-9-9-9-9-9-9-9-|--8--8--8--8-----6--6--6--6------|
--7-7-7-7-7-7-7-7-|--6--6--6--6---------------------|

SOLO

   |--3--|  |--3--|  |--3--|  |--3--|  |--3--|  |--3--|  |--3--|  |--3--|  
   S  S  S  S  S  S  S  S  S  S  S  S  S  S  S  S  S  S  S  S  S  S  S  S  
--24-23-22-23-22-21-22-21-20-21-20-19-20-19-18-19-18-17-18-17-16-17-16-15-|
--------------------------------------------------------------------------|
--------------------------------------------------------------------------|
--------------------------------------------------------------------------|
--------------------------------------------------------------------------|
--------------------------------------------------------------------------|


   |--3--|  |--3--|  |--3--|  |--3--|  |--3--|  |--3-|        
   S  S  S  S  S  S  S  S  S  S  S  S  S  S  S  S  S S E.  S  
--16-15-14-15-14-13-14-13-12-13-12-11-12-11-10-11-10-9-L---5-|
-------------------------------------------------------------|
-------------------------------------------------------------|
-------------------------------------------------------------|
-------------------------------------------------------------|
-------------------------------------------------------------|


  |-3-| |-3-| |-3-| |-3-| |-3-| |-3-|  |-3-|  |--3--|  
  S S S S S S S S S S S S S S S S S S  S S S  S  S  S  
--6-5-5-7-6-6-8-7-7-9-8-8-8-7-7-9-8-8-10-9-9-11-10-10-|
------------------------------------------------------|
------------------------------------------------------|
------------------------------------------------------|
------------------------------------------------------|
------------------------------------------------------|


   |-3-|  |--3--|  |--3--|  |--3--|  |--3--|  |--3--|  |--3--|  |--3--|  
   S S S  S  S  S  S  S  S  S  S  S  S  S  S  S  S  S  S  S  S  S  S  S  
--10-9-9-11-10-10-12-11-11-13-12-12-12-11-11-13-12-12-14-13-13-15-14-14-|
------------------------------------------------------------------------|
------------------------------------------------------------------------|
------------------------------------------------------------------------|
------------------------------------------------------------------------|
------------------------------------------------------------------------|


VERSE  
                  PM PM PM PM                      PM PM PM PM  
  E  E  E  E  E  E  S  S  S  S     E  E  E  E  E  E  S  S  S  S   
--------------------------------|--------------------------------|
--------------------------------|--------------------------------|
--------------------------------|--------------------------------|
--------------------------------|--------------------------------|
--7--6--7--6--7--6--------------|--7--6--7--6--7--6--------------|
--5--4--5--4--5--4--5--4--5--7--|--5--4--5--4--5--4--5--4--5--7--|


                 PM PM PM PM PM                             
  E  E  E  E  E  E  S  S  S  S     E  E  E  E  E  E  E  E   
--------------------------------|--------------------------|
--------------------------------|--------------------------|
--------------------------------|--------------------------|
--------------------------------|--------------------------|
--7--6--7--6--7--6--------------|--7--6--7--6--7-----------|
--5--4--5--4--5--4--5--4--5--7--|--5--4--5--4--5-----------|

CHORUS

  H        H           H        H           H        H         
--------------------|--------------------|--------------------|
--------------------|--------------------|--------------------|
--------------------|--------------------|--------------------|
-----------6--------|-----------8--------|-----------6--------|
--6--------4--------|--9--------6--------|--6--------4--------|
--4-----------------|--7-----------------|--4-----------------|


                 |--3--|                                      
  H        E  E  E  E  E     S S S S S S S S S S S S S S S S  
--------------------------|----------------------------------|
--------------------------|----------------------------------|
--------------------------|----------------------------------|
-----------8-----8--6-----|------------------6-6-6-6-6-6-6-6-|
--9--------6-----6--4--9--|--6-6-6-6-6-6-6-6-4-4-4-4-4-4-4-4-|
--7--------------------7--|--4-4-4-4-4-4-4-4-----------------|


  S S S S S S S S S S S S S S S S    S S S S S S S S S S S S S S S S  
----------------------------------|----------------------------------|
----------------------------------|----------------------------------|
----------------------------------|----------------------------------|
------------------8-8-8-8-8-8-8-8-|------------------6-6-6-6-6-6-6-6-|
--9-9-9-9-9-9-9-9-6-6-6-6-6-6-6-6-|--6-6-6-6-6-6-6-6-4-4-4-4-4-4-4-4-|
--7-7-7-7-7-7-7-7-----------------|--4-4-4-4-4-4-4-4-----------------|


                     |--3--|        |--3--|         
  S S S S S S S S    E  E  E  E  E  E  E  E  E  E   
------------------|--------------------------------|
------------------|--------------------------------|
------------------|--------------------------------|
------------------|-----------------8--8--8--8-----|
--9-9-9-9-9-9-9-9-|--8--8--8--8-----6--6--6--6-----|
--7-7-7-7-7-7-7-7-|--6--6--6--6--------------------|


OUTRO  
                  PM PM PM PM                      PM PM PM PM  
  E  E  E  E  E  E  S  S  S  S     E  E  E  E  E  E  S  S  S  S   
--------------------------------|--------------------------------|
--------------------------------|--------------------------------|
--------------------------------|--------------------------------|
--------------------------------|--------------------------------|
--7--6--7--6--7--6--------------|--7--6--7--6--7--6--------------|
--5--4--5--4--5--4--5--4--5--7--|--5--4--5--4--5--4--5--4--5--7--|


                    PM PM PM PM                      PM PM PM PM  
  E  E  E  E  E  E  S  S  S  S     E  E  E  E  E  E  S  S  S  S   
--------------------------------|--------------------------------|
--------------------------------|--------------------------------|
--------------------------------|--------------------------------|
--------------------------------|--------------------------------|
--7--6--7--6--7--6--------------|--7--6--7--6--7--6--------------|
--5--4--5--4--5--4--5--4--5--7--|--5--4--5--4--5--4--5--4--5--7--|


                    PM PM PM PM                      PM PM PM PM  
  E  E  E  E  E  E  S  S  S  S     E  E  E  E  E  E  S  S  S  S   
--------------------------------|--------------------------------|
--------------------------------|--------------------------------|
--------------------------------|--------------------------------|
--------------------------------|--------------------------------|
--7--6--7--6--7--6--------------|--7--6--7--6--7--6--------------|
--5--4--5--4--5--4--5--4--5--7--|--5--4--5--4--5--4--5--4--5--7--|


                    PM PM PM PM                       
  E  E  E  E  E  E  S  S  S  S     E  E  E  E  E  E   
--------------------------------|--------------------|
--------------------------------|--------------------|
--------------------------------|--------------------|
--------------------------------|--------------------|
--7--6--7--6--7--6--------------|--7--6--7--6--7--6--|
--5--4--5--4--5--4--5--4--5--7--|--5--4--5--4--5--4--|


  |--3--|  |--3--|  |--3--|  |--3--|                            
  E  E  E  E  E  E  E  E  E  E  E  E     E  H        Q    E                
--------------------------------------|----------------------|
--------------------------------------|----------------------|
--------------------------------------|----------------------|
--------------------------------------|----------------------|
--7--7--7--7--7--7--7--7--7--7--7--7--|--6-------------------|
--5--5--5--5--5--5--5--5--5--5--5--5--|--4-------------------|




Duration Legend
---------------
W - whole
H - half
Q - quarter
E - 8th
S - 16th
T - 32nd
X - 64th
. - note dotted
|-n-|  - n-tuplets


Tablature Legend
----------------
L - tied note
x - dead note
g - grace note
(n) - ghost note
> - accentuded note
NH - natural harmonic
AH - artificial harmonic
TH - tapped harmonic
SH - semi harmonic
PH - pitch harmonic
h - hammer on
p - pull off
b - bend
br - bendRelease
pb - preBend
pbr - preBendRelease
brb - bendReleaseBend
\n/ - tremolo bar dip
\n - tremolo bar dive
-/n - tremolo bar Release up
/n\ - tremolo bar inverted dip
/n - tremolo bar return
-\n - tremolo bar Release down
S - shift slide
s - legato slide
/ -  slide into from below or out of upwards
\ -  slide into from above or out of downwards
~ - vibrato
W - wide vibrato
tr - trill
TP - tremolo picking
T - tapping
S - slap
P - pop
< - fade in
^ - brush up
v - brush down
Tap to rate this tab
 
# A B C D E F G H I J K L M N O P Q R S T U V W X Y Z