Song name
# A B C D E F G H I J K L M N O P Q R S T U V W X Y Z

Raul Midon - Suddenly tab

-------------------------------------------------------------------------------
             SUDDENLY - tobyMAC (from the album "Portable Sounds")
-------------------------------------------------------------------------------
Tabbed by:  Waverley T.
Email: wave_t@waverleyt.com

      So I noticed nobody has taken the tiny bit of time it takes to make this tab and I
to make it.  Yah this is a pretty sweet song, but it requires some skill.  I think I
play it better than tobyMAC does, but hey, the band's doin their best!  I'll try to make 
easy for all yall guitarists who aren't yet at my level...  Get the rhythm from the
duh.

Tuning:  Standard ( E A D G B e )

       Intro & Main Riff
e|-------9----9-10-------9----9----------9----9-10-------9----9--|
B|----10---10---------10---10---10----10---10---------10---10----|
G|--9---------------9---------------9---------------9------------|
D|---------------------------------------------------------------| (2x)
A|---------------------------------------------------------------|
E|---------------------------------------------------------------|

        Verse 1 & 2
e|------------------------------------------------------------------------|
B|------------------------------------------------------------------------|
G|--3-3-3-3//5-5-5-5\\3-3-3-3\\-------//3-3-3-3//5-5-5-5\\----------------|
D|--3-3-3-3//5-5-5-5\\3-3-3-3\\3-3-3-3//3-3-3-3//5-5-5-5\\3-3-3-3-3-3-3-3-|(2x)
A|--1-1-1-1//3-3-3-3\\1-1-1-1\\3-3-3-3//1-1-1-1//3-3-3-3\\3-3-3-3-3-3-3-3-|
E|---------------------------\\1-1-1-1//----------------\\1-1-1-1-1-1-1-1-|

        Pre-Chorus Bridge
e|-----------------------------------|
B|-----------------------------------|
G|-----------3~~~~~~--8~~~~~~~~~~~~--|
D|--6~~~~~~--3~~~~~~--8~~~~~~~~~~~~--|
A|--6~~~~~~--1~~~~~~--6~~~~~~~~~~~~--|
E|--4~~~~~~--------------------------|

        Chorus
e|----------------------------------------------------------------------|
B|----------------------------------------------------------------------|
G|--3-3-3-3-3-3-3-3--8-8-8-8-8-8-8-8---------------------------8-6-5-3--|
D|--3-3-3-3-3-3-3-3--8-8-8-8-8-8-8-8--5-5-5-5-5-5-5-5--3-3-3-3-8-6-5-3--|
A|--1-1-1-1-1-1-1-1--6-6-6-6-6-6-6-6--5-5-5-5-5-5-5-5--3-3-3-3-6-4-3-1--|
E|------------------------------------3-3-3-3-3-3-3-3--1-1-1-1----------|

e|-----------------------------------------------------------------------|
B|-----------------------------------------------------------------------|
G|--3-3-3-3-3-3-3-3--8-8-8-8-8-8-8-8---------------------------7---10-7--|
D|--3-3-3-3-3-3-3-3--8-8-8-8-8-8-8-8--5-5-5-5-5-5-5-5--3-3-3-3-7-8-10-7--|
A|--1-1-1-1-1-1-1-1--6-6-6-6-6-6-6-6--5-5-5-5-5-5-5-5--3-3-3-3-5-8-8--5--|
E|------------------------------------3-3-3-3-3-3-3-3--1-1-1-1---6-------|

| /  slide up
| \  slide down
| ~  vibrato
| x  Mute note

   So yah that's most of the song, just repeated in different places.  Don't e-mail me
it's really important (I have a life, I don't spend all day checking my e-mail), but you
post comments on the site (preferably helpful comments-- who likes reading hate-mail?).  
  K Bye.
===============================================================================
Tap to rate this tab
 
# A B C D E F G H I J K L M N O P Q R S T U V W X Y Z